PDA

View Full Version : The Format



piratesarrcool
12-28-2007, 11:55 PM
Has anyone heard music by the indie band The Format? They are my favorite band and I think some of their acoustic songs ("She Doesn't Get It" acoustic and "Snails" acoustic) would make great Uke songs. Imeem.com probably has theses two songs on there if you want to look them up. Thank you!

Here is a weblink to the regular guitar tab version of the song "She Doesn't Get It." I don't know if anyone might know how to transcribe music from guitar tabs to uke tabs? Thank you!

http://www.ultimate-guitar.com/tabs/f/format/she_doesnt_get_it_tab.htm

Fred Miu
12-29-2007, 08:35 AM
glad to see you finally posted juno :)

octopusike
08-28-2010, 01:56 AM
I used to listen to the format a few years back and their songs bring back memories. I listened to them and steel train around the same time. I listed to steel train alot still actually. She Doesn't get it- in Low g.
A |--3--3--3--3--3--3--3--3----|--3--3--3--3--3--3--3--3----|
E |--3--3--3--3--3--3--3--3----|--3--3--3--3--3--3--3--3----|
C |--5--5--5--5--4--4--4--4----|--2--2--2--2--4--4--4--4----|
G |----------------------------|----------------------------|


--3--3--3--3--3--3--3--3----|--3--3--3--3--3--3--3--3----|
--3--3--3--3--3--3--3--3----|--3--3--3--3--3--3--3--3----|
--5--5--5--5--4--4--4--4----|--2--2--2--2--4--4--4--4----|
----------------------------|----------------------------|


--3.-3.-3.-3.-3.-3.-3.-3.---|--3.-3.-3.-3.-3.-3.-3.-3.---|
--3.-3.-3.-3.-3.-3.-3.-3.---|--3.-3.-3.-3.-3.-3.-3.-3.---|
--5.-5.-5.-5.-4.-4.-4.-4.---|--2.-2.-2.-2.-4.-4.-4.-4.---|
----------------------------|----------------------------|


--3.-3.-3.-3.-3.-3.-3.-3.---|--3.-3.-3.-3.-3.-3.-3.-3.---|
--3.-3.-3.-3.-3.-3.-3.-3.---|--3.-3.-3.-3.-3.-3.-3.-3.---|
--5.-5.-5.-5.-4.-4.-4.-4.---|--2.-2.-2.-2.-4.-4.-4.-4.---|
----------------------------|----------------------------|


--3.-3.-3.-3.-3.-3.-3.-3.---|--3.-3.-3.-3.-3.-3.-3.-3.---|
--3.-3.-3.-3.-3.-3.-3.-3.---|--3.-3.-3.-3.-3.-3.-3.-3.---|
--5.-5.-5.-5.-4.-4.-4.-4.---|--2.-2.-2.-2.-4.-4.-4.-4.---|
----------------------------|----------------------------|


--3.-3.-3.-3.-3.-3.-3.-3.---|--3.-3.-3.-3.-3.-3.-3.-3.---|--15---|
--3.-3.-3.-3.-3.-3.-3.-3.---|--3.-3.-3.-3.-3.-3.-3.-3.---|--15---|
--5.-5.-5.-5.-4.-4.-4.-4.---|--2.-2.-2.-2.-4.-4.-4.-4.---|--12---|
----------------------------|----------------------------|--14---|


--15-------15-------14L-----|--14---|--15-------15-------14L-----|--14---|
--15-------15-------15L-----|--15---|--15-------15-------15L-----|--15---|
--12-------12-------14L-----|--14---|--12-------12-------14L-----|--14---|
--14-------12-------12L-----|--12---|--14-------12-------12L-----|--12---|


--15-15----14-14------------||----15-15-15---|--15-15-15-15-15-15-15-15---|
--15-15----15-15------------||o---15-15-15---|--15-15-15-15-15-15-15-15---|
--12-12----14-14------------||o---7--12-12---|--12-12-12-12-12-12-12-12---|
--14-14----12-12------------||----17-12-12---|--12-12-12-12-12-12-12-12---|


--12----------12----------12-12-12----------12------|
--13----------13----------13-13-13----------13------|
--14----------14----------14-14-14----------14------|
--14----------14----------14-14-14----------14------|


--12----12----12-12-12------|-----15-15-15-15-15-15-15---|
--13----13----13-13-13------|-----15-15-15-15-15-15-15---|
--14----14----14-14-14------|-----9--12-12-12-12-12-12---|
--14----14----14-14-14------|-----17-14-14-14-14-14-14---|


-----15-15-15-15-15-15-15---|-----12-12-12-12-12-12-12---|
-----15-15-15-15-15-15-15---|-----13-13-13-13-13-13-13---|
-----7--12-12-12-12-12-12---|-----14-14-14-14-14-14-14---|
-----17-12-12-12-12-12-12---|-----14-14-14-14-14-14-14---|


-----14-14-14-14-14-14-14--||----------------------------|
-----15-15-15-15-15-15-15-o||--1--8--8--8--8--8--8--8----|
-----14-14-14-14-14-14-14-o||--12-7--7--7--7--7--7--7----|
-----12-12-12-12-12-12-12--||--12-10-10-10-9--9--9--9----|


----------------------------|----------------------------|
--8--8--8--8--8--8--8--8----|--8--8--8--8--8--8--8--8----|
--7--7--7--7--7--7--7--7----|--7--7--7--7--7--7--7--7----|
--7--7--7--7--9--9--9--9----|--10-10-10-10-9--9--9--9----|


----------------------------|-----------------3.----3.---|
--8--8--8--8--8--8--8--8----|--8.-8.-8.-------3.----3.---|
--7--7--7--7--7--7--7--7----|--7.-7.-7.-------4.----4.---|
--7--7--7--7--9--9--9--9----|--10.10.10.-----------------|


--3.-3.-3.-------3.----3.---|--3.-3.-3.-------3.----3.---|
--3.-3.-3.-------3.----3.---|--3.-3.-3.-------3.----3.---|
--4.-4.-4.-------2.----4.---|--5.-5.-5.-------4.----4.---|
--5.-5.-5.------------------|----------------------------|


--3M-3.-3.-------3.-3.-3.---|--3.-3.-3.-------3.----3.---|
--3M-3.-3.-------3.-3.-3.---|--3.-3.-3.-------3.----3.---|
--7M-4.-4.-------4.-2.-4.---|--5.-5.-5.-------4.----4.---|
-----5.-5.-------5.---------|----------------------------|


--3.-3.-3.-------3.----3.---|--3.-3.-3.-------3.----3.---|
--3.-3.-3.-------3.----3.---|--3.-3.-3.-------3.----3.---|
--4.-4.-4.-------2.----4.---|--5.-5.-5.-------4.----4.---|
--5.-5.-5.------------------|----------------------------|


--10L---------10-10-8--10---|--------------------3-------|
--8L----------8-------------|--------------0--3-----3----|
----------------------------|--------12------------------|
----------------------------|--10-12----12---------------|


--------3-----------3-------|--------3-----------3-------|
-----3-----3--0--3-----3----|--1--3-----3--0--3-----3----|
--2-------------------------|----------------------------|
----------------------------|----------------------------|


--------3-----------3-------|--------3-----------3-------|
-----3-----3--0--3-----3----|--1--3-----3--0--3-----3----|
--2-------------------------|----------------------------|
----------------------------|----------------------------|


--------3-----------3-------|--------3-----------3-------|
-----3-----3--0--3-----3----|--1--3-----3--0--3-----3----|
--2-------------------------|----------------------------|
----------------------------|----------------------------|


--------3-----------3-------|--15---|--15-------15-------14L-----|--14---|
-----3-----3--0--3-----3----|--15---|--15-------15-------15L-----|--15---|
--2-------------------------|--12---|--12-------12-------14L-----|--14---|
----------------------------|--14---|--14-------12-------12L-----|--12---|


--15-------15-------14L-----|--14---|--15-15----14-14------------||
--15-------15-------15L-----|--15---|--15-15----15-15------------||
--12-------12-------14L-----|--14---|--12-12----14-14------------||
--14-------12-------12L-----|--12---|--14-14----12-12------------||


----15-15-15---|--15-15-15-15-15-15-15-15---|
o---15-15-15---|--15-15-15-15-15-15-15-15---|
o---7--12-12---|--12-12-12-12-12-12-12-12---|
----17-12-12---|--12-12-12-12-12-12-12-12---|

octopusike
08-28-2010, 01:57 AM
--12----------12----------12-12-12----------12------|
--13----------13----------13-13-13----------13------|
--14----------14----------14-14-14----------14------|
--14----------14----------14-14-14----------14------|


--12----12----12-12-12------|-----15-15-15-15-15-15-15---|
--13----13----13-13-13------|-----15-15-15-15-15-15-15---|
--14----14----14-14-14------|-----9--12-12-12-12-12-12---|
--14----14----14-14-14------|-----17-14-14-14-14-14-14---|


-----15-15-15-15-15-15-15---|-----12-12-12-12-12-12-12---|
-----15-15-15-15-15-15-15---|-----13-13-13-13-13-13-13---|
-----7--12-12-12-12-12-12---|-----14-14-14-14-14-14-14---|
-----17-12-12-12-12-12-12---|-----14-14-14-14-14-14-14---|


-----14-14-14-14-14-14-14--||-----12-12-12-12-12-12-12---|
-----15-15-15-15-15-15-15-o||-----13-13-13-13-13-13-13---|
-----14-14-14-14-14-14-14-o||-----14-14-14-14-14-14-14---|
-----12-12-12-12-12-12-12--||-----14-14-14-14-14-14-14---|


-----14-14-14-14-14-14-14---|--12-12-12-12-12-12-12-12---|
-----15-15-15-15-15-15-15---|--12-12-12-12-12-12-12-12---|
-----14-14-14-14-14-14-14---|--12-12-12-12-12-12-12-12---|
-----12-12-12-12-12-12-12---|--14-14-9--14-14-14-14-14---|


--12-12-12-12-12-12-12-12---|--12-12-12-12-12-12-12-12---|
--12-12-12-12-12-12-12-12---|--13-13-13-13-13-13-13-13---|
--12-12-12-12-12-12-12-12---|--12-12-12-12-12-12-12-12---|
--14-14-9--14-14-14-14-14---|--14-14-14-14-14-14-14-14---|


--12-12-12-12-12-12-12-12---|--12-12-12-12-12-12-12-12---|
--13-13-13-13-13-13-13-13---|--12-12-12-12-12-12-12-12---|
--12-12-12-12-12-12-12-12---|--12-12-12-12-12-12-12-12---|
--14-14-14-14-14-14-14-14---|--14-14-9--14-14-14-14-14---|


--12-12-12-12-12-12-12-12---|--12-12-12-12-12-12-12-12---|
--12-12-12-12-12-12-12-12---|--13-13-13-13-13-13-13-13---|
--12-12-12-12-12-12-12-12---|--12-12-12-12-12-12-12-12---|
--14-14-9--14-14-14-14-14---|--14-14-14-14-14-14-14-14---|


--12-12-12-12-12-12-12-12---|--12-12-12-12-12-12-12-12---|
--13-13-13-13-13-13-13-13---|--12-12-12-12-12-12-12-12---|
--12-12-12-12-12-12-12-12---|--12-12-12-12-12-12-12-12---|
--14-14-14-14-14-14-14-14---|--14-14-9--14-14-14-14-14---|


--12-12-12-12-12-12-12-12---|--12-12-12-12-12-12-12-12---|
--12-12-12-12-12-12-12-12---|--13-13-13-13-13-13-13-13---|
--12-12-12-12-12-12-12-12---|--12-12-12-12-12-12-12-12---|
--14-14-9--14-14-14-14-14---|--14-14-14-14-14-14-14-14---|


--12-12-12-12-12-12-12-12---|--12-12-12-12-12-12-12-12---|
--13-13-13-13-13-13-13-13---|--12-12-12-12-12-12-12-12---|
--12-12-12-12-12-12-12-12---|--12-12-12-12-12-12-12-12---|
--14-14-14-14-14-14-14-14---|--14-14-9--14-14-14-14-14---|


--12-12-12-12-12-12-12-12---|--12-12-12-12---|--14-14-14-14---|--15L--|--15L--|
--12-12-12-12-12-12-12-12---|--13-13-13-13---|--15-15-15-15---|--15L--|--15L--|
--12-12-12-12-12-12-12-12---|--12-12-12-12---|--14-14-14-14---|--12L--|--12L--|
--14-14-9--14-14-14-14-14---|--14-14-14-14---|--12-12-12-12---|--12L--|--12L--|


--15---|-------|-------|-------|-------|-------||-15-15-15-15---|
--15---|-------|-------|-------|-------|-------||o15-15-15-15---|
--12---|-------|-------|-------|-------|-------||o7--12-12-12---|
--12---|-------|-------|-------|-------|-------||-17-12-12-12---|


--15-15-15-15-15-15-15-15---|
--15-15-15-15-15-15-15-15---|
--12-12-12-12-12-12-12-12---|
--12-12-12-12-12-12-12-12---|


--12----------12----------12-12-12----------12------|
--13----------13----------13-13-13----------13------|
--14----------14----------14-14-14----------14------|
--14----------14----------14-14-14----------14------|


--12----12----12-12-12------|-----15-15-15-15-15-15-15---|
--13----13----13-13-13------|-----15-15-15-15-15-15-15---|
--14----14----14-14-14------|-----9--12-12-12-12-12-12---|
--14----14----14-14-14------|-----17-14-14-14-14-14-14---|


-----15-15-15-15-15-15-15---|-----12-12-12-12-12-12-12---|
-----15-15-15-15-15-15-15---|-----13-13-13-13-13-13-13---|
-----7--12-12-12-12-12-12---|-----14-14-14-14-14-14-14---|
-----17-12-12-12-12-12-12---|-----14-14-14-14-14-14-14---|


-----14-14-14-14-14-14-14--||-----12-12-12-12-12-12-12---|
-----15-15-15-15-15-15-15-o||-----13-13-13-13-13-13-13---|
-----14-14-14-14-14-14-14-o||-----14-14-14-14-14-14-14---|
-----12-12-12-12-12-12-12--||-----14-14-14-14-14-14-14---|


-----14-14-14-14-14-14-14---|----------------------------|
-----15-15-15-15-15-15-15---|--1--8--8--8--8--8--8--8----|
-----14-14-14-14-14-14-14---|--12-7--7--7--7--7--7--7----|
-----12-12-12-12-12-12-12---|--12-10-10-10-9--9--9--9----|


----------------------------|----------------------------|
--8--8--8--8--8--8--8--8----|--8--8--8--8--8--8--8--8----|
--7--7--7--7--7--7--7--7----|--7--7--7--7--7--7--7--7----|
--7--7--7--7--9--9--9--9----|--10-10-10-10-9--9--9--9----|


----------------------------|----------------------------|
--8--8--8--8--8--8--8--8----|--8--8--8--8--8--8--8--8----|
--7--7--7--7--7--7--7--7----|--7--7--7--7--7--7--7--7----|
--7--7--7--7--9--9--9--9----|--10-10-10-10-9--9--9--9----|


----------------------------|----------------------------|
--8--8--8--8--8--8--8--8----|--8--8--8--8--8--8--8--8----|
--7--7--7--7--7--7--7--7----|--7--7--7--7--7--7--7--7----|
--7--7--7--7--9--9--9--9----|--10-10-10-10-9--9--9--9----|


----------------------------|-------|-------|-------|-------||
--8--8--8--8--8L------------|--8L---|--8L---|--8L---|--8----||
--7--7--7--7--7L------------|--7L---|--7L---|--7L---|--7----||
--7--7--7--7--9L------------|--9L---|--9L---|--9L---|--9----||

octopusike
08-28-2010, 02:00 AM
Here's the lead uke for She Doesn't get It. I does sort of sound like a tetris song though.:)
A |--5--7--5--3--5--3--0--3L---|--3--3--5-----5--3--0-------|
E |----------------------------|----------------------------|
C |----------------------------|----------------------------|
G |----------------------------|----------------------------|


--5--7--5--3--5--3--0--3L---|--3-----3-----3-------------|--3----|-------|
-----------------------3L---|--3--3--3-----3--1--3-------|--3----|-------|
----------------------------|----------------------------|-------|-------|
----------------------------|----------------------------|-------|-------|


-------|-------|-------|-------|-------|-------|--3----|
-------|-------|-------|-------|-------|-------|--3----|
-------|-------|-------|-------|-------|-------|--0----|
-------|-------|-------|-------|-------|-------|--2----|


--3--------3--------2L------|--2----|--3--------3--------2L------|--2----|
--3--------3--------3L------|--3----|--3--------3--------3L------|--3----|
--0--------0--------2L------|--2----|--0--------0--------2L------|--2----|
--2--------0--------0L------|--0----|--2--------0--------0L------|--0----|


--3--3-----2--2-------------||----3--3--3----|--3--3--3--3--3--3--3--3----|
--3--3-----3--3-------------||o---3--3--3----|--3--3--3--3--3--3--3--3----|
--0--0-----2--2-------------||o---0--0--0----|--0--0--0--0--0--0--0--0----|
--2--2-----0--0-------------||----0--0--0----|--0--0--0--0--0--0--0--0----|


--0-----------0-----------x--x--0-----------0-------|
--1-----------1-----------x--x--1-----------1-------|
--2-----------2-----------x--x--2-----------2-------|
--2-----------2-----------x--x--2-----------2-------|


--0-----0-----0--0--0-------|-----3--3--3--3--3--3--3----|
--1-----1-----1--1--1-------|-----3--3--3--3--3--3--3----|
--2-----2-----2--2--2-------|-----0--0--0--0--0--0--0----|
--2-----2-----2--2--2-------|-----2--2--2--2--2--2--2----|


-----3--3--3--3--3--3--3----|-----0--0--0--0--0--0--0----|
-----3--3--3--3--3--3--3----|-----1--1--1--1--1--1--1----|
-----0--0--0--0--0--0--0----|-----2--2--2--2--2--2--2----|
-----0--0--0--0--0--0--0----|-----2--2--2--2--2--2--2----|


-----2--2--2--2--2--2--2---||--5--7--5--3--5--3--0--3L---|
-----3--3--3--3--3--3--3--o||----------------------------|
-----2--2--2--2--2--2--2--o||----------------------------|
-----0--0--0--0--0--0--0---||----------------------------|


--3--3--5-----5--3--0-------|--5--7--5--3--5--3--0--3L---|
----------------------------|-----------------------3L---|
----------------------------|----------------------------|
----------------------------|----------------------------|


--3-----3-----3-------------|-------|-------|-------|-------|-------|-------|
--3--3--3-----3--1--3-------|-------|-------|-------|-------|-------|-------|
----------------------------|-------|-------|-------|-------|-------|-------|
----------------------------|-------|-------|-------|-------|-------|-------|


-------|----------------------------|----------------------------|
-------|--3L----------3--3--1--3----|----------------------------|
-------|--0L----------0-------------|--------0-----------0-------|
-------|----------------------------|-----0-----0-----0-----0----|


----------------------------|----------------------------|
----------------------------|----------------------------|
--------0-----------0-------|--------0-----------0-------|
-----0-----0-----0-----0----|-----0-----0-----0-----0----|


----------------------------|----------------------------|
----------------------------|----------------------------|
--------0-----------0-------|--------0-----------0-------|
-----0-----0-----0-----0----|-----0-----0-----0-----0----|


----------------------------|----------------------------|
----------------------------|----------------------------|
--------0-----------0-------|--------0-----------0-------|
-----0-----0-----0-----0----|-----0-----0-----0-----0----|


----------------------------|--3----|--3--------3--------2L------|--2----|
----------------------------|--3----|--3--------3--------3L------|--3----|
--------0-----------0-------|--0----|--0--------0--------2L------|--2----|
-----0-----0-----0-----0----|--2----|--2--------0--------0L------|--0----|


--3--------3--------2L------|--2----|--3--3-----2--2-------------||
--3--------3--------3L------|--3----|--3--3-----3--3-------------||
--0--------0--------2L------|--2----|--0--0-----2--2-------------||
--2--------0--------0L------|--0----|--2--2-----0--0-------------||


----3--3--3----|--3--3--3--3--3--3--3--3----|
o---3--3--3----|--3--3--3--3--3--3--3--3----|
o---0--0--0----|--0--0--0--0--0--0--0--0----|
----0--0--0----|--0--0--0--0--0--0--0--0----|


--0-----------0-----------x--x--0-----------0-------|
--1-----------1-----------x--x--1-----------1-------|
--2-----------2-----------x--x--2-----------2-------|
--2-----------2-----------x--x--2-----------2-------|


--0-----0-----0--0--0-------|-----3--3--3--3--3--3--3----|
--1-----1-----1--1--1-------|-----3--3--3--3--3--3--3----|
--2-----2-----2--2--2-------|-----0--0--0--0--0--0--0----|
--2-----2-----2--2--2-------|-----2--2--2--2--2--2--2----|

octopusike
08-28-2010, 02:01 AM
-----3--3--3--3--3--3--3----|-----0--0--0--0--0--0--0----|
-----3--3--3--3--3--3--3----|-----1--1--1--1--1--1--1----|
-----0--0--0--0--0--0--0----|-----2--2--2--2--2--2--2----|
-----0--0--0--0--0--0--0----|-----2--2--2--2--2--2--2----|


-----2--2--2--2--2--2--2---||-----0--0--0--0--0--0--0----|
-----3--3--3--3--3--3--3--o||-----1--1--1--1--1--1--1----|
-----2--2--2--2--2--2--2--o||-----2--2--2--2--2--2--2----|
-----0--0--0--0--0--0--0---||-----2--2--2--2--2--2--2----|


-----2--2--2--2--2--2--2----|--------------0-------------|
-----3--3--3--3--3--3--3----|--0-----0-----------3-------|
-----2--2--2--2--2--2--2----|-----0-----0-----0-----0----|
-----0--0--0--0--0--0--0----|----------------------------|


--------------0-------------|--------------0-------------|
--0-----0-----------3-------|--0-----0-----------3-------|
-----0-----0-----0-----0----|-----0-----0-----0-----0----|
----------------------------|----------------------------|


-----------------0--3-------|--------------0-------------|
--0-----0-----3h-------0----|--0-----0-----------3-------|
-----0-----0----------------|-----0-----0-----0-----0----|
----------------------------|----------------------------|


--------------0-------------|--------------0-------------|
--0-----0-----------3-------|--0-----0-----------3-------|
-----0-----0-----0-----0----|-----0-----0-----0-----0----|
----------------------------|----------------------------|


-----------------0--3-------|--------------0-------------|
--0-----0-----3h-------0----|--0-----0-----------3-------|
-----0-----0----------------|-----0-----0-----0-----0----|
----------------------------|----------------------------|


--------------3-------------|--------------0-------------|
--0-----0-----------3-------|--0-----0-----------3-------|
-----0-----0-----0-----0----|-----0-----0-----0-----0----|
----------------------------|----------------------------|


-----------------0--3-------|--------------0-------------|
--0-----0-----3h-------0----|--0-----0-----------3-------|
-----0-----0----------------|-----0-----0-----0-----0----|
----------------------------|----------------------------|


--------------3-------------|--0-------------|----------------------------|
--0-----0-----------3-------|-----3--1--0----|--0h-1--0h-1----------------|
-----0-----0-----0-----0----|----------------|--------------2-----2-------|
----------------------------|----------------|----------------------------|


-------|-------|-------|-------|-------|-------|-------|-------||
-------|-------|-------|-------|-------|-------|-------|-------||
-------|-------|-------|-------|-------|-------|-------|-------||
--0L---|--0----|-------|-------|-------|-------|-------|-------||


-3--3--3--3----|--3--3--3--3--3--3--3--3----|
o3--3--3--3----|--3--3--3--3--3--3--3--3----|
o0--0--0--0----|--0--0--0--0--0--0--0--0----|
-0--0--0--0----|--0--0--0--0--0--0--0--0----|


--0-----------0-----------x--x--0-----------0-------|
--1-----------1-----------x--x--1-----------1-------|
--2-----------2-----------x--x--2-----------2-------|
--2-----------2-----------x--x--2-----------2-------|


--0-----0-----0--0--0-------|-----3--3--3--3--3--3--3----|
--1-----1-----1--1--1-------|-----3--3--3--3--3--3--3----|
--2-----2-----2--2--2-------|-----0--0--0--0--0--0--0----|
--2-----2-----2--2--2-------|-----2--2--2--2--2--2--2----|


-----3--3--3--3--3--3--3----|-----0--0--0--0--0--0--0----|
-----3--3--3--3--3--3--3----|-----1--1--1--1--1--1--1----|
-----0--0--0--0--0--0--0----|-----2--2--2--2--2--2--2----|
-----0--0--0--0--0--0--0----|-----2--2--2--2--2--2--2----|


-----2--2--2--2--2--2--2---||-----0--0--0--0--0--0--0----|
-----3--3--3--3--3--3--3--o||-----1--1--1--1--1--1--1----|
-----2--2--2--2--2--2--2--o||-----2--2--2--2--2--2--2----|
-----0--0--0--0--0--0--0---||-----2--2--2--2--2--2--2----|


-----2--2--2--2--2--2--2----|--5--7--5--3--5--3--0--3L---|
-----3--3--3--3--3--3--3----|----------------------------|
-----2--2--2--2--2--2--2----|----------------------------|
-----0--0--0--0--0--0--0----|----------------------------|


--3--3--5-----5--3--0-------|--5--7--5--3--5--3--0--3L---|
----------------------------|-----------------------3L---|
----------------------------|----------------------------|
----------------------------|----------------------------|


--3-----3-----3-------------|--5--7--5--3--5--3--0--3L---|
--3--3--3-----3--1--3-------|----------------------------|
----------------------------|----------------------------|
----------------------------|----------------------------|


--3--3--5-----5--3--0-------|--5--7--5--3--5--3--0--3L---|
----------------------------|-----------------------3L---|
----------------------------|----------------------------|
----------------------------|----------------------------|


--3-----3-------------------|-------|-------|-------|-------||
--3--3--3-------------------|-------|-------|-------|-------||
----------------------------|-------|-------|-------|-------||
----------------------------|-------|-------|-------|-------||

Conjoin
08-30-2010, 05:52 PM
It's funny that this group was brought up... I was recently introduced to the group called "fun." It was formed by one member of The Format, since The Format broke up. "fun." is quickly becoming one of my favorite bands, some songs remind me of Queen in a way. Sorry, off-topic...