Results 1 to 2 of 2

Thread: She's Too Good For Me-Warren Zevon

  1. #1
    Join Date
    May 2016
    Location
    Ottawa, Ontario
    Posts
    22

    Default She's Too Good For Me-Warren Zevon

    I am a fairly new player (terrible but dedicated) struggling with one of my favourite songs. She's Too Good For Me by Warren Zevon is such a beautiful song and would be well worth learning. Any suggestions? Strumming or finger picking patterns would be much appreciated.
    Thank you,
    Dan

  2. #2
    Join Date
    May 2015
    Location
    Sweet Home Osaka Japan
    Posts
    453

    Default

    Hi, Dan!

    Original key is G. I strum it DuDuDuDu. Up is only a couple of strings and very calm.

    Code:
    intro
    A |-------0--------5--2--0-----------0-------------
    E |-3--3-----3--3-----------3--3--3-----3--3--3----
    C |------------------------------------------------
    G |------------------------------------------------
    
     interlude
    A |-------0-----0--2--5--5--5--7--7--5--2--0----
    E |-3--3-----3----------------------------------
    C |---------------------------------------------
    G |---------------------------------------------
    
    A |-------0-----0--2--------------0----------
    E |-3--3-----3-----------0--3--3--------3----
    C |-------------------2--------------2-------
    G |------------------------------------------

    Martin 5K, Martin D-18

Thread Information

Users Browsing this Thread

There are currently 1 users browsing this thread. (0 members and 1 guests)

Bookmarks

Posting Permissions

  • You may not post new threads
  • You may not post replies
  • You may not post attachments
  • You may not edit your posts
  •