Page 1 of 2 12 LastLast
Results 1 to 10 of 14

Thread: Sleepwalk Uke tabs?

  1. #1
    Join Date
    Jun 2009
    Location
    Las Vegas!
    Posts
    1,065

    Default Sleepwalk Uke tabs?

    I've heard some beautiful fingerstyle Uke versions on Youtube and would love to learn it, but so far all I can find are guitar tabs. I understand that it's basically in the key of "C" but I'm not good enough yet to work out the details.

    Can anyone steer me toward something more suited for Uke tuning? Either in low or high G?

  2. #2
    Join Date
    May 2008
    Location
    Milwaukee
    Posts
    25

    Default

    The video I found on youtube sounds like a high g ukulele. A quick search of the forums yielded these tabs, I hope you enjoy.


    intro
    |-3-------7-2-0--3--------------2-----------------------------
    |-0-3s5-------0--1-----------0--1-----------------------------
    |-0-----------0--0--0--0--0-----2-----------------------------
    |-0-----------2--1--------------0-----------------------------




    1st section
    | |-3--------0---3-----------------3----------------0-----
    |.|-3--3--3--0---1--1-3s4--3--1----3--3h5--3h5p3----0----
    |.|-0--------0---0-----------------0----------------0---
    | |-0--------2---1-----------------0----------------2---


    |-3----------------3-------------------3-------------------
    |-1--1-3s4--3--1---3---0--3--0---------1---------0-0-0-----
    |-0----------------0------------0------0--0-0-0--------0---
    |-1----------------0---------------2---1-------------------




    1st ending
    A|-3-0-----7-2-0----------------] |
    E|-0-0-3s5-----1----------------].|
    C|-0-0---------0----------------].|
    G|-0-2---------2----------------] |

    2nd ending
    A|-3-0-0-0-3-3-1-1-0-0--------]
    E|-0-------------------3-4----]
    C|-0--------------------------]
    G|-0--------------------------]




    2nd Section
    A|-0-0--7-5-3------7-5-3-------0---0----]
    E|------------4-4--------3-3-3---0---3--]
    C|--------------------------------------]
    G|--------------------------------------]

    A|------0--3-----0-0--7-5-3-----7-5-3--]
    E|--0-3------3-4------------4-4--------]
    C|-0-----------------------------------]
    G|-------------------------------------]

    A|--------------------2-2-2-----]
    E|-3--3-4-5-6-6-5-4-3-1-1-1-----]
    C|--------------------2-2-2-----]
    G|--------------------0-0-0-----]

    Repeat 1st Section then go to coda


    Coda
    A|-3-0-0-0-3-------2-3-----7-2-0-3---------2---]
    E|-0-------3---0-3-1-0-3s5-----0-1-------3-1---]
    C|-0-------0-0-----2-0---------0-0-0-0-0---2---]
    G|-0-------0-------0-0---------2-1---------0---]

    A|-3-----7-2-0-3----------2-3--------]||
    E|-0-3s5-----0-1--------0-1-0--------]||
    C|-0---------0-0--0-0-0---2-0--------]||
    G|-0---------2-1----------0-0--------]||

  3. #3
    Join Date
    Feb 2008
    Posts
    40,315

    Default

    If you PM me your mailing address I'll send you a copy of a version I have. Too much to load on the computer. Mine has tabs, chords and traditional notes on staff.
    UWC; only those who have not been can rationalize not going.

  4. #4
    Join Date
    Jun 2009
    Location
    Las Vegas!
    Posts
    1,065

    Default

    Thanks guys. I should know better. I used the "search" button after posting and found several threads about this already.

    http://www.youtube.com/watch?v=td29ZdIiiHU

    This is the version I'd really like to be able to duplicate.

  5. #5
    Join Date
    Dec 2007
    Location
    Chicago
    Posts
    11,236

    Default

    Aldrine has been teaching this song in the weekly live lessons.

    http://www.ustream.tv/recorded/1853776
    http://www.ustream.tv/recorded/1893666

  6. #6
    Join Date
    Jun 2009
    Location
    Las Vegas!
    Posts
    1,065

    Default

    Wow, thanks! I forgot that the "live" lessons are stored for later viewing.

  7. #7
    Join Date
    Jul 2010
    Posts
    4

    Default sleep walk tutorial video

    Can Aldrine or someone repost the tutorial he did in 2009 for Sleep Walk? I would love to check it out. I can't find the tabs anywhere and Aldrine's tutorials always rock.

    Thanks,

    Dan

  8. #8
    Join Date
    Aug 2009
    Location
    Singapore
    Posts
    8

    Default Sleepwalk *bump*

    Hi

    I can't seem to watch Aldrine's Sleepwalk lesson on US Stream (anyone else have the same problem?)

    Is it available on any other site?

    Thanks..

  9. #9
    Join Date
    Feb 2008
    Posts
    40,315

    Default

    Quote Originally Posted by salukulady View Post
    If you PM me your mailing address I'll send you a copy of a version I have. Too much to load on the computer. Mine has tabs, chords and traditional notes on staff.
    Since 2008 I have probably mailed out 30 copies of the version I have.....I'm happy to send my version to anyone. Because it is hand written it does not scan very well. If you want a copy you must PM me your street address. Again I can not just email it to you and will ignore any requests for it to be emailed. I will be happy to snail mail a copy to anyone, I just need your street address.

    My version is not Aldrines version.

  10. #10
    Join Date
    Apr 2012
    Posts
    12

    Default Send

    Quote Originally Posted by salukulady View Post
    If you PM me your mailing address I'll send you a copy of a version I have. Too much to load on the computer. Mine has tabs, chords and traditional notes on staff.
    Can you send them to me at bracamontes.bryan@gmail.com
    Please and thank you

Thread Information

Users Browsing this Thread

There are currently 1 users browsing this thread. (0 members and 1 guests)

Bookmarks

Posting Permissions

  • You may not post new threads
  • You may not post replies
  • You may not post attachments
  • You may not edit your posts
  •  
Top 50 Ukulele Sites