Results 1 to 5 of 5

Thread: Jake shimabukuro : bohemian rhapsody help

  1. #1

    Default Jake shimabukuro : bohemian rhapsody help

    Hi guys! Do you have any tabs or tutorial for this song? I suggest that this song or cover will be the next month's free ukulele lesson.. thanks guys!
    http://www.facebook.com/photo.php?fb...type=3&theater

    My uke! (if you can't see it, search susing's guitar on fb and like it and now open the link.. thanks )

  2. #2
    Join Date
    Jun 2011
    Location
    Kentucky
    Posts
    1,481

    Default

    Yeah I've got it in jakes tab book.

  3. #3
    Join Date
    Dec 2008
    Location
    Hampshire, UK
    Posts
    2,106

    Default

    The book that it's in is called, Peace Love Ukulele.
    http://www.youtube.com/errol4bz
    http://leroy4bz.blogspot.com/
    -------------------------------------------------------------------------------------------------------------------
    The good thing about music is when it hits you, you feel no pain!

  4. #4
    Join Date
    Apr 2008
    Location
    Meadowview, Virginia
    Posts
    113

    Default

    Here you go, this was posted a while back. It seems pretty accurate:

    Code:
    A||--5--5--5--5~----5~------|--4--4--5--4--------------|
    E||--7----------------------|--5-----------7-5~------L-|
    C||--7----------------------|--7-----------------------|
    G||--4----------------------|--4-----------------------|
    
    --3--3--3--5~----3----------|--10--10--12--10------------------|
    --2-------------------------|--10--------------10--------------|
    --2-----------------2s--11--|--11-----------------11~-------L~-|
    --2-------------------------|---0------------------------------|
    
    --2--2--2h-3p-2~----------2--|--2--2--3--5----------5s--|
    --3--------------------3-----|--1--------3----3---------|
    --4-----------------4--------|--2--------5----------0---|
    --4--------------------------|--0----------------0------|
    
    --7-----------10------10-----7--|--7--7--7--7~----7\-------|
    -----0--<>12------10------8-----|--8--------------8\-------|
    --L-----<>12------11------9-----|--9--------------9\-------|
    --------------------------------|--------------------------|
    
    --5--5--7--5-----------5--|--6--6--5\-----4--4--5\-----|
    --7--------------7--8-----|--6--6--5\-----4--4--5\-----|
    --7-----------------------|--7--7--6\-----5--5--6\-----|
    --------------------------|----------------------------|
    
    --6--6--5\-----4--4--5\-----|--7~--7~--7~--7~--5-----10~----|
    --6--6--5\-----4--4--5\-----|--3---------------3--3---7-----|
    --7--7--6\-----5--5--6\-----|--0---------------4------7-----|
    ----------------------------|--0----------------------------|
    
    --10~--10~--10~--10~---9-----------|----9~-------------------|
    ---9------------------10----10-----|--(10)------------2s--3--|
    ---7-------------------9--------9--|-------------------------|
    -----------------------------------|-------------------------|
    
    --2-----0s-2--------------------|--2-----0s-2---------------------|
    --3------------<>12-------------|--3-------------<>12-------------|
    --2--2------------------<>2-----|--2--2-------------------<>2-----|
    ---------------------0-------0--|-------------0--------0-------0--|
    
    --0h-2-2-------------------------|--0--2-2-------9-----7--0h-2-|
    --3----3--3-----<>12-------------|--3------3-----7--7----------|
    --2----------2-----------<>2-----|--4---------4--7-------------|
    ----------------------0-------0--|-----------------------------|
    
    --3---5-3-2---0----0--2--|--3---5-3-2---0-------0--|
    --0-----------4----------|--3-----------2----------|
    --4-----------4----------|--0-----------2----2-----|
    --2-----------2----------|--0-----------2----------|
    
    --0h-2-2--------2-----2--5s--|--9----7-7-----6-----6--7--9--|
    --3----3--3-----3-----3------|--7------------7-----7--------|
    --2----------2--2--2---------|--7--7------7--7--7-----------|
    -----------------------------|------------------------------|
    
    --10---10-10-10---10-------------|--0-----0--0--3-3--3-2-2--2-|
    ---8---------------8---12--8--7--|--2-----2--2--4-4--4-3-3--3-|
    ---9---------------8-8--------8--|--2--2--2--2--3-3--3-2-2--2-|
    ---0-----------------------------|--2-----2--2---------0-0--0-|
    
    --7-7---7--7--7--7--5--7s-8-|--7-----7-----7-----7-----|
    --3-3---3--3--3--3--3-------|--8-----8-----8-----8-----|
    --0-----------0--0--4-------|--9--9--9--9--8--8-----8--|
    --0--------------0--0-------|--------------------------|
    
    --8---7-7-5---5-----5-----|-----/5--5--7--7s-8-8--8s-10--10-|
    --5---5-5-----5-----5-----|--3--/3--3--3--3----3--3---------|
    --2-----------1-----1--2--|--2--/5--5--5----------5---------|
    --0-----------0--0-----0--|--0------------------------------|
    
    --8p-7---7--5--3--10---------5h-7-|--3-----3-----3-------------|
    --8------8--7--5---0------0-------|--5-----5-----4--6--4h-6~---|
    --0------0--0--0--11-----11-------|--4-----4-----5-------------|
    --0----------------0--0-----------|--0--0-----0--0-------------|
    
    ---------------3--------3-----3-----3--|--2-----0s-2--------------------|
    --3h-4p-3~-L~--3-----5-----3-----2-----|--3------------<>12-------------|
    --0------------0-----5-----4-----3-----|--2--2------------------<>2-----|
    --0--------0------0--------------------|---------------------0-------0--|
    
    --2-----0s-2---------------------|--0h-2-2-------------------------|
    --3-------------<>12-------------|--3----3--3-----<>12-------------|
    --2--2-------------------<>2-----|--2----------2-----------<>2-----|
    -------------0--------0-------0--|----------------------0-------0--|
    
    --0--2-2-------9-----7--0h-2-|--3---5-3-2---0----0--2--|
    --3------3-----7--7----------|--0-----------4----------|
    --4---------4--7-------------|--4-----------4----------|
    -----------------------------|--2-----------2----------|
    
    --3---5-3-2---0-------0--|--0h-2-2-----2p-0---0h-2------5--|
    --3-----------2----------|--3----3--3-------3-----------3--|
    --0-----------2----2-----|--2------------------------2--2--|
    --0-----------2----------|---------------------------0--0--|
    
    --9----7-7-----6-----6--7--9--|--10---10-10-10---10-------------|
    --7------------7-----7--------|---8---------------8---12--8--7--|
    --7--7------7--7--7-----------|---9---------------8-8--------8--|
    ------------------------------|---0-----------------------------|
    
    --0-----0--0--3-3--3-2-2--2-|--7-7---7--7--7--7--5--7s-8-|
    --2-----2--2--4-4--4-3-3--3-|--3-3---3--3--3--3--3-------|
    --2--2--2--2--3-3--3-2-2--2-|--0-----------0--0--4-------|
    --2-----2--2---------0-0--0-|--0--------------0--0-------|
    
    --7-----7-----7-----7-----|--8---7-7-5---5-----5-----|
    --8-----8-----8-----8-----|--5---5-5-----5-----5-----|
    --9--9--9--9--8--8-----8--|--2-----------1-----1--2--|
    --------------------------|--0-----------0--0-----0--|
    
    -----/5--5--7--7s-8-8--8s-10--10-|--8p-7---7--5--3--10---------5--|
    --3--/3--3--3--3----3--3---------|--8------8--7--5---0------0-----|
    --2--/5--5--5----------5---------|--0------0--0--0--11-----11-----|
    --0------------------------------|--0----------------0--0---------|
    
    --<>12-----0--2-3-0--2-3-0--2-3-|--5------5--5--5-7-8-10-12~--12--|
    --<>12-----0------0------0------|--5----5-5--5--5--------------7--|
    --<>12-----0------0------0------|--5--5---5--5--5--------------7--|
    --------0--2------1------0------|--5------5--5--5-----------------|
    
     
    --12-10-7h-8p-7----7------------------------------|
    ---7------------10---8-10-7h-8p-7---7-------------|
    ---7------------------------------9---7-9-5-7-4-5-|
    --------------------------------------------------|
    
    --3-------------7-10------------------|--<>12----0--2-3-0--2-3-0--2-3-|
    --------3s-8-10----0------8s-12-13-15-|--<>12----0------0------0------|
    --0---------------11----9-------------|--<>12----0------0------0------|
    -----0-------------0--0---------------|----------2------1------0------|
    
    --5--5-5-5------------5\----|----------13-13-13\~----------|--1--1--1--1--|
    --5--5-5-5------------5\----|------------------------6~----|--2--2--2--2--|
    --5------5--2-4-5~----------|--5~--------------------------|--------------|
    --5------5------------------|------------------------------|--------------|
    
    --1--1--1--1--|--2--1-1-0-0-1--|--2--1-1-0--1--|--9--4-4-9--4-4-|
    --2--2--2--2--|--2--2-2-2-2-2--|--2--2-2-2--2--|--9--6-6-9--6-6-|
    --------------|----------------|---------------|----------------|
    --------------|----------------|---------------|----------------|
    
    --3-3-4--6--4--|--5-5-5-5-6--6--|--7-7-7-7-8--8--|--9---------------|
    --5-5-6--7--6--|--6-6-6-6-5--5--|--6-6-6-6-4--4--|--6---------------|
    ---------------|--5-5-5-5-5--5--|--4-4-4-4-5--5--|--6-----------1-1-|
    ---------------|--5-5-5-5-5--5--|--5-5-5-5-4--4--|--3--6-6-7s-6-----|
    
    --------------------|----------------2-0-|------10-10-10--7--|--------------|
    --------------------|--------------------|--4----------------|--8--------4--|
    --2s-1----------1-1-|--2s-1--------------|-------------------|-----9-----3--|
    -------6-6-7s-6-----|-------6-6-7s-6-----|----0--------------|--------0-----|
    
    ---------------|------------12--|--10-10--9--10--12-12-|--10---9--9-10--12--|
    --3-3-2--3--4--|--3-3-2--3--12--|--12-12-11--12--12-12-|--12--11-11-12--13--|
    --2-2-1--2--3--|--2-2-1--2---0--|---0--0--0---0---0--0-|---0---0--0--0--12--|
    ---------------|-------------0--|---------0------------|---0---------0---0--|
    
    --12-14-10--10-10-9--|--9-9-10--10----3-|----3---3---3-----|----------------|
    --13----12--12-12-8--|--8-8--7---7--5---|--3---2---1---4-4-|--3--2-2-3--4-4-|
    --12----12--12-12-9--|--9-9--7---7--5---|--4---3---2---3-3-|--2--1-1-2--3-3-|
    --------12--12-12----|-------7---7------|------------------|----------------|
    
    ---------2--3--|--2--3----5-5-7-|---8-7-7-15-15-15\---|--2--3----5-5-7-|
    --4-3-3--3--0--|--3--0----7-7-8-|--10-8-8-------------|--3--0----7-7-8-|
    --3-2-2--2--0--|--2--0----------|---------------------|--2--0----------|
    ---------0--0--|--0--0--0-------|---------------------|--0--0--0-------|
    
    ---8-7-7-15-15-15\---|--2--3----5-5-7-|---8-7-7-15-15-15-5-7-|
    --10-8-8-------------|--3--0----7-7-8-|--10-8-8----------7-8-|
    ---------------------|--2--0----------|----------------------|
    ---------------------|--0--0--0-------|----------------------|
    
    ---8-7-7-15-15-15-5-7-|---8-7-7-----15-15-13--|--10-----------|--------1--2-|
    --10-8-8----------7-8-|--10-8-8---------------|------11-------|-----4--2--2-|
    ----------------------|---------/12-----------|---------------|-----3--3--3-|
    ----------------------|-----------------------|----------6--3-|--1--4--3--4-|

  5. #5
    Join Date
    Apr 2008
    Location
    Meadowview, Virginia
    Posts
    113

    Default

    Continued...

    Code:
    -1--6--2--3--|------------<>12----------------<>12------|-------------------|
    -2--3--3--0--|------------------------------------------|--3-3-5-3-1-0-3--3-|
    -1--3--2--0--|------------------------------------------|--4-4-5-4-2-0-2----|
    -3--3--0--0--|--<>12-<>12------<>12-<>12-<>12------<>12-|--------------4----|
    
    --3---3-0--0--|--2-2-2-2-7--7--|-----------------|--0--0-0-0-0--0--|
    --0---0-1--1--|--2-2-2-2-0--0--|--3--3-3-3-3--3--|--3--3-3-3-3--3--|
    --0---0-0--0--|--3-3-3-3-7--7--|--2--2-2-2-2--2--|--2--2-2-2-2--2--|
    --0---0-2--2--|--4-4-4-4-0--0--|--0--0-0-0-0--0--|--0--0-0-0-0--0--|
    
    --2--2-2-2-2--2--|--x/-10-10-10-10-10-10--10--|
    --3--3-3-3-3--3--|--x/-10-10-10-10-10-10--10--|
    --2--2-2-2-2--2--|--x/-11-11-11-11-11-11--11--|
    --0--0-0-0-0--0--|------0--0--0--0--0--0---0--|
    
    --3-----------------------3---------------0-------|
    ------0---1-3-----3-1-0-------0---1-3-------3---3-|
    --0-L-----------0---------0-L-----------0---------|
    --------0-----0---------0-------0-----0-------0---|
    
    --3-----------------------5---------------2-------|
    ------0---1-3-----3-1-0-------2---3-5-------5---5-|
    --0-L-----------0---------2-L-----------2---------|
    --------0-----0---------0-------2-----2-------2---|
    
    -----8--8--8--7--7--7--5--5--3---3---|--2--3-5---5-5-5-5-5-5-1--13\-----|
    -----3--3--3--3--3--3--3--3--3---3---|--3--3-7---7-7-7-7-7-7-3--10------|
    -----5--5--5--5--5--5--5--5--4---4---|--2--2-7---7-7-7-7-7-7-2--10\-----|
    -----0--0--0--0--0--0--0--0--0---0---|-------0--------------------------|
    
    -----8--8--8--7--7--7--5--5--3---3-L--|
    -----3--3--3--3--3--3--3--3--3---3-L--|
    -----5--5--5--5--5--5--5--5--4---4-L--|
    -----0--0--0--0--0--0--0--0--0---0-L--|
    
    --8--10-12---12-12-12-12-12-12-8---8-8-8-8---7-L--|
    --8---L-------8--8--8--8--8--8-5---5-5-5-5---5-L--|
    --9---L-------9--9--9--9--9--9-5---5-5-5-5---5-L--|
    -------------------------------7---7-7-7-7---7-L--|
    
    --7--L-5---5-5-5-5-5-5-x--8--8--8--7--7--|
    --3--L-3---3-3-3-3-3-3-x--5--5--5--5--5--|
    --5--L-5---5-5-5-5-5-5-x--5--5--5--5--5--|
    --0--L-0---0-0-0-0-0-0-x--7--7--7--7--7--|
    
    --7--L-5---5-5-5-5-5-5-3---3-3-3-5---5-5-5-|--3---3-3-3-5-x-2--2--|
    --3--L-3---3-3-3-3-3-3-1---1-1-1-3---3-3-3-|--1---1-1-1-3-x-1--1--|
    --5--L-5---5-5-5-5-5-5-2---2-2-2-5---5-5-5-|--2---2-2-2-5-x-2--2--|
    --0--L-0---0-0-0-0-0-0-2---2-2-2-0---0-0-0-|--2---2-2-2-0---0-----|
    
    --3-----------------------3---------------0-------|
    ------0---1-3-----3-1-0-------0---1-3-------3---3-|
    --0-L-----------0---------0-L-----------0---------|
    --------0-----0---------0-------0-----0-------0---|
    
    --3-----------------------5---------------2-------|
    ------0---1-3-----3-1-0-------2---3-5-------5---5-|
    --0-L-----------0---------2-L-----------2---------|
    --------0-----0---------0-------2-----2-------2---|
    
    ----6-8-10--8-10-12--10-12-13--3--3-3-3-3--3--3--|
    ----6-6--6--8--8--8--11-11-11--4--4-4-4-4--4--4--|
    ----7-7--7--9--9--9--10-10-10--3--3-3-3-3--3--3--|
    ----0-------0---------0--0--0--0--0--------------|
    
    --8--8-8-8-8-8-x-8-x-8-x-8s-10--10-10-10-10--10--10--|
    --5--5-5-5-5-5-x-5-x-5-x-5s--7---7--7--7--7---7---7--|
    --5--5-5-5-5-5-x-5-x-5-x-5s--7---7--7--7--7---7---7--|
    --5----------------------5s--7---7--7-------------7--|
    
    ----2-3-5-3-5-7-5-7--8-7--8-10--8-10-12-14-15-17\------|
    ----3-5-7-5-7-8-7-8-10-8-10-12-10-12-13-15-17----------|
    -------------------------------------------------------|
    --0-------------0------------------------------0-------|
    
    --3-Ls-5-7-10----2---2-5-10----|--0-----------<>12----2------3-----|
    -----------------3-3-----------|--0------<>12---------0----0-0-----|
    ----0------------2-------------|--0-------------------2--2---0-----|
    --0--------------0-------------|--2-2s-5--------------1------2--2--|
    
    --2--2h-3p-2-3--3--5----7h-8p-7--12--|--6-----6-7---9---10-----------|
    --0----------0--0--3-----------------|--7---7-----7------0-----------|
    --2----------0--0--5----------0------|--6-6-----------6-11----11--x--|
    --1----------2--2--0--0-----------9--|-------------------0-----0-----|
    
    --0-------0h-2------------|--8-7--------------------|-7-5-------------------|
    --1------------3----------|--5----8------3----------|-5----8--7---3----3----|
    --0----0-------0----0--0--|--0-------4---4-----4--4-|-0-----------4----4----|
    --0----0-------0----0-----|--------------0--0-----0-|-------------0----0--0-|
    
    --7----5--7---------------|--------------------5s-7-|-7--5--5---------------|
    --5-8---------8--------8--|------8------------------|-5--------8--8--5----7-|
    --0-----------8-----8-----|----8--------------------|-5-----------5---------|
    --------------0--0--------|-0-----------------------|-------------0---------|
    
    --3-----------0--2--0--2--|--------------0--2--0--2----|
    --0-----0--3--1-----------|--0-----0--3--2-------------|
    --0--0--------0-----------|--0--0--------0-------------|
    --0-----------2-----------|--0-----------2-------------|
    
    --2--2--------------------|--0--0--0--/10--10--8--8------|
    --3--------3--3--1--1--0--|--0--------------8--------12--|
    --2-----2-----2-----------|--1--------------8------------|
    --0-----------0-----------|--2---------------------------|
    
    --7-----------5-----5----|-----5-----5---5------L-|--5--------||
    --9--9--------5----------|--7-----5------3------L-|--2--------||
    --9-----9--7--6--6-------|--7-----6------4------L-|--2--------||
    -------------------------|------------------------|-----------||

Thread Information

Users Browsing this Thread

There are currently 1 users browsing this thread. (0 members and 1 guests)

Bookmarks

Posting Permissions

  • You may not post new threads
  • You may not post replies
  • You may not post attachments
  • You may not edit your posts
  •  
Top 50 Ukulele Sites