PDA

View Full Version : "The Office" theme!?



Mangi
03-04-2008, 05:13 PM
I was wondering if anyone knew or could figure out the theme song from the show "The Office" its really fun and id love to learn it. Im gonna try to figure it out for myself but if someone already knows that would be great. thanks in advanced for ur thoughts and efforts!
-Sam!

edmundwhitehead
03-08-2008, 11:52 AM
Here's my arrangement of the main theme:

E E Q. E E E E E H E E E E H E E Q Q E E E E
|-5---5------5---|-5---5----5---|-7---7----7---|-3--3--3-2-0-2--|
|-7---7------7---|-7---7----7---|-3---3----3---|-0--0-----------|
|---7------7---7-|---6--------6-|---4--------4-|----------------|
|----------------|--------------|--------------|-0--0-----------|


Q Q H H E E E E W Q Q E E E E
|-10-----10----|-(10)----9h10p9-5-|-7--------|-3--3--3-2-0-2-|
|--7-----------|---7--------------|-3--------|-0-------------|
|--7--7--------|---6--------------|-4--------|-0-------------|
|--0-----------|---0--------------|-0--------|-0-------------|


H H H E E E E H E E E E Q Q E E E E
|------10----|-(10)----9-10-12-9-|-7----5-7-5-2-|-3--3--3-2-0-2-|
|-------7----|---7---------------|-3------------|-0-------------|
|-------7----|---6---------------|-4------------|-0-------------|
|-0-----0----|---0---------------|-0------------|-0-------------|

Dominator
03-08-2008, 12:42 PM
Gonna see if I can align things up using the code tag.



E E Q. E E E E E H E E E E H E E Q Q E E E E
|-5---5------5---|-5---5----5---|-7---7----7---|-3--3--3-2-0-2--|
|-7---7------7---|-7---7----7---|-3---3----3---|-0--0-----------|
|---7------7---7-|---6--------6-|---4--------4-|----------------|
|----------------|--------------|--------------|-0--0-----------|


Q Q H H E E E E W Q Q E E E E
|-10-----10----|-(10)----9h10p9-5-|-7--------|-3--3--3-2-0-2-|
|--7-----------|---7--------------|-3--------|-0-------------|
|--7--7--------|---6--------------|-4--------|-0-------------|
|--0-----------|---0--------------|-0--------|-0-------------|


H H H E E E E H E E E E Q Q E E E E
|------10----|-(10)----9-10-12-9-|-7----5-7-5-2-|-3--3--3-2-0-2-|
|-------7----|---7---------------|-3------------|-0-------------|
|-------7----|---6---------------|-4------------|-0-------------|
|-0-----0----|---0---------------|-0------------|-0-------------|

edmundwhitehead
03-09-2008, 01:01 AM
Thank's for the alignment

davoomac
03-09-2008, 03:53 AM
Nice tabs! thanks for that guys :)

Mangi
03-09-2008, 04:21 PM
Wow after a few days i had pretty much given up on my strange request but you guys totally came through. Thanks ALOT this is awesome. I will totally practise this all night. Again i cant thank you enough nice job guys.

Woodshed
03-10-2008, 09:19 AM
Here's my version of it:

The Office Theme (http://ukulelehunt.com/wp-content/uploads/2008/03/officetheme.pdf)

I've moved it down frets. I find it much easier to play like that.