PDA

View Full Version : Sungha Jung- Waiting Tabs



CasanovaGuy
10-07-2015, 12:13 PM
Hey! I just finished a bare-bones sort of tab of Waiting by Sungha Jung for a friend and I thought I'd post it here. It's a really nice song, and you can loop the tab to play it however long you want. Hope you guys have fun with it!

I know it's a guitar tab but yolo.


Waiting- Sungha Jung
Standard tuning

AMA7 F#m7
E|---0-----------------------------0-----------------0---0-----------|
B|-----------0-0---0-----------0h2-2-2-------0-------0---0-----------|
G|-----6-----6-----6-1---------1---1-------1-----2p1-1---1-----1-----|
D|---------7-7---7-7-----2-2---2---------2-2-----------------2-------|
A|-------0-----0-------0---0-0-------------------------------------0-|
E|-0---------x-----x-------x-------x---2---x-2-2---x-2-2-x-2-----x---|

C#m7 E
E|-------------------------------------------0-0-0---|
B|---------------0---------------------------0-0-0---|
G|-2---1---1-1-2---0h1---------1---1h2-1-----1-1-1---|
D|-------2-2-2---------2---2---2---2---2-2-----------|
A|-4---4---4-4-----4-------2---2---2---2-------------|
E|---x-----x-----x-------x-0-0-x-0-----x---0---x---x-|

AMA7 F#m7
E|---0-----------------------------0-----------------0---0-----------|
B|-----------0-0---0-----------0h2-2-2-------0-------0---0-----------|
G|-----6-----6-----6-1---------1---1-------1-----2p1-1---1-----1-----|
D|---------7-7---7-7-----2-2---2---------2-2-----------------2-------|
A|-------0-----0-------0---0-0-------------------------------------0-|
E|-0---------x-----x-------x-------x---2---x-2-2---x-2-2-x-2-----x---|

C#m7 E
E|-------------------------------------------0-0-0---0---|
B|---------------0---------------------------0-0-0---0---|
G|-2---1---1-1-2---0h1---------1---1h2-1-----1-1-1---1---|
D|-------2-2-2---------2---2---2---2---2-2---------------|
A|-4---4---4-4-----4-------2---2---2---2-----------------|
E|---x-----x-----x-------x-0-0-x-0-----x---0---x---x---x-|

D AMA7
E|---------5---------5---8s9---8s9-8s7-5---4----0-------<7>---------<12>-------------|
B|---6s7-------6s7-------------------------5------0-----------<7>--------------0-----|
G|---6s7---7---6s7---7---6s7---6s7-8s7-6---6--------6----------------------------6---|
D|-0-0---0-0-0-0---0-0-0-0---0-0---0---0---------------------------------------7-7---|
A|-----------------------------------------0-0----0-0-0--0--0--0--0--0---0-0-0-0-0-0-|
E|---------------------------------------x---------------------------------------x---|

D AMA7
E|-------5---------5---8s9---8s9---9-10----9-----0-----0-----0-0-----0-0---|
B|-6s7-------6s7---------------------------0-----0-----------0-0-------0---|
G|-6s7---7---6s7---7---6s7---6s7-----------9---9-9---------7-6-6---6-------|
D|-0---0-0-0-0---0-0-0-0---0-0---0-------------------------7-7-7---7-----0-|
A|-----------------------------------------0-0-----0-0-----0-0-0-0---------|
E|--------------------------------------x--------x-------x-----------------|

D C#m7 F#m7
E|-------5---------5-8s9---8s9---8s7-5---4---------------------------0-|
B|-6s7-------6s7-------------------------5---5h7---5-----2-------2s3---|
G|-6s7---7---6s7---7-6s7---6s7---8s7-6---4---4-----4-4---2-------2-----|
D|-0---0-0-0-0---0-0-0---0-0---0-0---0-------------6-6---2-2---2-------|
A|---------------------------------------4-4-------4-------------------|
E|-------------------------------------x---------x-----x-2---2---------|

Bm7 C#m7 Dm7 E
E|-----0---0-2p0-0---0---4-----5-----------------3s4-3s4-4s5-7-9-|
B|-3---3---------5---5-----5---6---6---6-6-6---------------------|
G|-2---2---------4---4---------5---5---5-5-5-----3s4-3s4-5s6-7-9-|
D|-0-------------------------------7---7-7-7---------------------|
A|-2-2---2-------4-4---4-------5-5---5-------5-------------------|
E|-----x-------x-----x-------x-----------------0-----------------|

A A7 DMA7
E|-9---------9---9-9-9---9-10---12-9-----9-10p9-7---------10s12---|
B|-----0-----0---8-8-8---8---------7-7------------9-9-------------|
G|-9---9---9-----9-9-9---9---------7-7------------9-9---9---------|
D|---7-7---------------------------0-0-0--------0-----0-----------|
A|-0-----0-------0-----0------------------------------------------|
E|-----x-------x-----x--------x------x--------x-----x-----------x-|

Bm7 E Asus A
E|-10-------9s10-9p7-7--------------7-9s10-------10s12----9------6s7-----|
B|------7--------------9-9---9-10------------------------------------0---|
G|------7--------------9-9---9-------------9---9----------9-9-9--6s7-----|
D|-9----9--------------------9---------------7------------7---7----------|
A|------------------------------------0-------------------0---0--0-------|
E|-7--7-x-7--------x-0---x-0------x--------x------------x-----x--------x-|

D C#m7 F#7
E|-5---5---------5---8s9---8s7---5-----------------------------------|
B|-7---7---6s7---7---------x-------7---5-----------5-----3---2-3s5---|
G|-7---7---6s7---7---6s7---8s7-----7---4-4h6---4h6-6-----3---3-------|
D|-0-0---0-0---0---0-----0-------0-----6-6-----6---------2-----------|
A|-----------------------------0-------4-------4-------------------0-|
E|-----x---------x---------x---------x-------x-------x-2---x-2---x---|

Bm7 E
E|---------------0-0-0-----|
B|-3---2---0-----0-0-0-----|
G|-----2-----2s1-1-1-1-----|
D|-------------------2-----|
A|-2-2---2-----------------|
E|-----x-------x-0-----0-x-|

gamehayst
10-26-2015, 12:48 AM
It's so amazing ! thanks for it, try it with my guitar