PDA

View Full Version : I need help on Honey Baby



acabooe
03-07-2008, 08:38 AM
Hey, Since so many of you know how to play it, I was wondering if anyone had the tabs for Honey Baby?

I got the tabs off a tropical storm hawaii, but it is not complete, and I don't even know if it is right.

Can anyone help me.

Mahalo
Acabooe:cool:

NukeDOC
03-07-2008, 08:47 AM
this might help
http://www.youtube.com/watch?v=MOstj38S-b0

experimentjon
03-07-2008, 05:17 PM
Yup the video had it down. But I think he played it the same way the tabs have it. I guess it depends on which tabs from tropical storm hawaii you're looking at. This one should be what he's playing:


Honey Baby All Parts


Composed By: Three Plus

Performed By: Three Plus

Submitted By: Art V. <artlovesyou@hotmail.com>


(Solo 1)

A|---4-5--4--7-7-7-7--5-5-4h5p4-7-7----7-7-7-7-4-0-
E|--5-----------------------------------------------
C|-6-------------------------------------------------
G|---------------------------------------------------

A|-----0------0-----0-----0-------
E|-0h2----0h2---0h2---0h2---0h2-0-
C|--------------------------------
G|--------------------------------

(2x)
A|--------------
E|-0--2-2-2-4-5-
C|--------------
G|--------------

A|-3/4-7-4-2--2/4-4h5-4-0-
E|------------------------
C|------------------------
G|------------------------

(Solo 2)
A|-----0-2---0-----------------------2-
E|-0h2-----4---2-4-0-2-0---0---0----0--
C|-----------------------2---1-----1---
G|--------------------------------1----

A|--3/4-7-4-5--5/7--5-4--3/4-5-4--------11-12-9-11-7-9-5-7--0-
E|-------------------------------5/12--12---------------------
C|------------------------------------------------------------
G|------------------------------------------------------------

A|------------------------------4/5--7-7--9--
E|-4h5p4---4h5p4----4-5--5/7\5--5/7--9-9--10-
C|-------6-------6---------------------------
G|-------------------------------------------

A|-9-9-9-7-7-7-5-5-5-4-4-4-7-7-7-5-5-5-4-4-4-2-2-2-5-5-5-4-4-4-2-2-2-0h2-0-
E|-------------------------------------------------------------------------
C|-------------------------------------------------------------------------
G|-------------------------------------------------------------------------


A|-----0------0-----0-----0-------
E|-0h2----0h2---0h2---0h2---0h2-0-
C|--------------------------------
G|--------------------------------

(2x)
A|--------------
E|-0--2-2-2-4-5-
C|--------------
G|--------------

A|-2/4-7-4-2--2/4-5-6-
E|------------4/5-7-8-
C|--------------------
G|--------------------

(Solo 3)
A|---4-5--4--7-7-7-7--5-5-4h5p4-7-7----7-7-7-4-0-
E|--5--------------------------------------------
C|-6---------------------------------------------
G|-----------------------------------------------

A|-----0------0-----0-----0-------
E|-0h2----0h2---0h2---0h2---0h2-0-
C|--------------------------------
G|--------------------------------

(2x)
A|--------------
E|-0--2-2-2-4-5-
C|--------------
G|--------------

A|---4-5-7--2h4------------------2-
E|--5-----------5---------------0--
C|-6---------------4-5-4-2-1---1---
G|----------------------------1----

acabooe
03-08-2008, 06:04 AM
Mahalo plenty Jon,

I love the song, but I don't think that I was playing it exactally right.
I'll give it a shot with the tabs you sent.

Aloha
Acabooe:cool: