PDA

View Full Version : 3rd Stream anyone??



l0calb0y91
12-16-2007, 04:57 PM
wondering if anyone has anything for Jake's 3rd stream....he's too fast!!!
i heard that Dominator and Aldrine can play it and hopefully someone can help me!!

thanks!

Dominator
12-16-2007, 07:11 PM
Hey, I wish I could play this one but so far no dice. Aldrine, on the other hand can nail this tune because I heard him play most of it. I had started working it out back when the Dragon CD first came out. Here is as far as I got. This should keep you busy for a while.



4/4 1/4
Gtr I
|-^0------------|-----0----------|----------------|---------7--|-(7)-0-|
|-^1--5-5-5-7-8-|-(8)-0--5-5-5-7-|-(7)-8-2--5-5-5-|-7-8-7---4--|-(4)-0-|
|-^2--5-5-5-5-5-|-(5)-0--4-4-4-4-|-(4)-4-3--3-3-3-|-3-3-----4--|-(4)-0-|
|-^2------------|-----2----------|-------2--------|---------4--|-(4)-0-|


4/4
|-(0)-0----------|-------0--------|-----2--------|-------5-7--7---|
|-(0)-1--5-5-5-7-|-(7)-8-0--5-5-5-|-7-8-2--7-7-7-|-(7)-8------4---|
|-(0)-2--5-5-5-5-|-(5)-5-0--4-4-4-|-4-4-3--3-3-3-|-(3)-3------4---|
|-(0)-2----------|-------2--------|-----2--------|------------4---|


2/4 4/4
|-5--5--|-5-7-8-7-5-----------------------|----x--7--x---|
|-4--4--|-----------8-7-5-4-5-7-5-4-------|----x--4--x---|
|-4--4--|---------------------------5-4-2-|-4--x--4--x---|
|-4--4--|---------------------------------|-------4------|


|-0-0-0-0-0-0-0-0-|-0-0-0-0-0-0-0-0-0-|-(0)-0-0-0-0-0-0-0-0-0-|
|-0-0-0-0-0-0-0-0-|-0-0-0-0-0-0-0-2-2-|-(2)-2-2-2-0-0-0-0-0-0-|
|-0-0-0-0-0-0-0-0-|-0-0-0-0-0-0-0-0-0-|-(0)-0-0-0-0-0-0-0-0-0-|
|-2-2-2-2-2-2-2-2-|-2-2-2-2-2-2-2-2-2-|-(2)-2-2-2-2-2-2-2-2-2-|


|-0-0-0-0-0-0-0-0-0-0-|-(0)-0-0-0-0-0-0-0-0-|-0-0-0-0-0-0-0-0-|
|-0-0-0-0-0-0-0-0-0-2-|-(2)-2-2-2-2-0-0-0-0-|-0-0-0-0-0-0-0-0-|
|-0-0-0-0-0-0-0-0-0-0-|-(0)-0-0-0-0-0-0-0-0-|-0-0-0-0-0-0-0-0-|
|-2-2-2-2-2-2-2-2-2-2-|-(2)-2-2-2-2-2-2-2-2-|-2-2-2-2-2-2-2-2-|


3/4
|-0-0-0-0-(0)-0-0-0-0-0-|-(0)-0-0-0-0-0-0-0-0-0-0-0-0-0-0-0-|-0-0-0-0-0------|
|-0-0-2-2-(2)-2-2-2-0-0-|-(0)-0-0-0-0-0-0-0-0-0-0-0-2-2-2-2-|-2-2-2-2-2--0---|
|-0-0-0-0-(0)-0-0-0-0-0-|-(0)-0-0-0-0-0-0-0-0-0-0-0-0-0-0-0-|-0-0-0-0-0------|
|-2-2-2-2-(2)-2-2-2-2-2-|-(2)-2-2-2-2-2-2-2-2-2-2-2-2-2-2-2-|-2-2-2-2-2------|


4/4
||--------5-7-7-8-7-5---5-------|-------3-5-5-7-5-3---3-------|
||o-5-7-8-------------8---8-7-5-|-3-5-7-------------7---7-5-3-|
||o-----------------------------|-----------------------------|
||------------------------------|-----------------------------|


1.
1/4
|-------2-3-3-5-3-2---2-------|---------------|----------------------|-----||
|-1-3-5-------------5---5-3-1-|-0-4-7-5-5h8-7-|-(7)--5--3--1--0--(0)-|--0-o||
|-----------------------------|---------------|----------------------|----o||
|-----------------------------|---------------|----------------------|-----||


2.
4/4
|----------6-7--0-|-7-7-7-12-10-8s5--0-5-|-5-5-10-5-8-7--3-3-3-|
|-7--5--3---------|----------------------|---------------------|
|----------3-4----|----------------------|---------------------|
|-----------------|----------------------|---------------------|


3/4 4/4
|-8-7-6--0-5-3-2s5-|-5-6-7---(7)-0-|-7-7-7-12-10-8s5--0-5-|
|------------------|---------------|----------------------|
|------------------|---------------|----------------------|
|------------------|---------------|----------------------|


3/4
|-5-5-10-5-8-7--3-3-3-|-8-7-6--0-5-3-2s5-|-5-6-7---(7)---|
|---------------------|------------------|-------------0-|
|---------------------|------------------|---------------|
|---------------------|------------------|---------------|


4/4
||--------5-7-7-8-7-5---5-------|-------3-5-5-7-5-3---3-------|
||o-5-7-8-------------8---8-7-5-|-3-5-7-------------7---7-5-3-|
||o-----------------------------|-----------------------------|
||------------------------------|-----------------------------|


1.
1/4
|-------2-3-3-5-3-2---2-------|---------------|----------------------|-----||
|-1-3-5-------------5---5-3-1-|-0-4-7-5-5h8-7-|-(7)--5--3--1--0--(0)-|--0-o||
|-----------------------------|---------------|----------------------|----o||
|-----------------------------|---------------|----------------------|-----||


2.
4/4
|-------2-3-5-3-2---2-------------|---------------|------------6-7---|
|-1-3-5-----------5---5-3-1-5-3-1-|-0-4-7-5-5h8-7-|-(7)--5--3--------|
|---------------------------------|---------------|------------3-4---|
|---------------------------------|---------------|------------------|


1/4
|-0------------|-----0----------|----------------|---------7--|-(7)-0-|
|-1--5-5-5-7-8-|-(8)-0--5-5-5-7-|-(7)-8-2--5-5-5-|-7-8-7---4--|-(4)-0-|
|-2--5-5-5-5-5-|-(5)-0--4-4-4-4-|-(4)-4-3--3-3-3-|-3-3-----4--|-(4)-0-|
|-2------------|-----2----------|-------2--------|---------4--|-(4)-0-|


4/4 2/4
|-(0)-0----------|-------0--------|-----2--------|-------5-7--7--|-5--5--|
|-(0)-1--5-5-5-7-|-(7)-8-0--5-5-5-|-7-8-2--7-7-7-|-(7)-8------4--|-4--4--|
|-(0)-2--5-5-5-5-|-(5)-5-0--4-4-4-|-4-4-3--3-3-3-|-(3)-3------4--|-4--4--|
|-(0)-2----------|-------2--------|-----2--------|------------4--|-4--4--|

Aldrine Guerrero
12-16-2007, 11:01 PM
This is quite the song to tackle.

You need a specific technique to do this song. The sweeps are impossible to do with the regular thumb or pointer finger. But good luck with this one. It's super fun to play once you got it down though.

l0calb0y91
12-18-2007, 02:33 PM
thanks guys! this helps a lot!

do you happen to know some of the chords Jake uses in his youtube video? in the middle of the song?

koalohakine
08-06-2008, 04:59 PM
This is quite the song to tackle.

You need a specific technique to do this song. The sweeps are impossible to do with the regular thumb or pointer finger. But good luck with this one. It's super fun to play once you got it down though.

So whats the special technique?

Guting
08-06-2008, 05:23 PM
So whats the special technique?

the whole thumb-middle tweakfest.

koalohakine
08-06-2008, 06:17 PM
the whole thumb-middle tweakfest.

What does that mean?

Guting
09-09-2008, 10:08 AM
What does that mean?

I decided to actually try this song out about a week ago, sort of getting it down, a lot cleaner when I go slower but anykine just sample.

gotta turn up the volume (cell phone cam)

http://img.photobucket.com/albums/v26/guting/th_09-09-08_1256.jpg (http://smg.photobucket.com/albums/v26/guting/?action=view&current=09-09-08_1256.flv)

deach
09-09-2008, 10:14 AM
Heaps sweet as Guting!

Kanaka916
09-10-2008, 05:25 AM
Brah, wen you get um down, you goin rip! Jes no foget to make one vid . . .