PDA

View Full Version : Uke got mail ep22



UkuLeLesReggAe
04-03-2009, 03:51 PM
whats the song played at the start of the video?? mi internet going heaps slow, so i could only watch about first 3 seconds of the song then it would stop and load... so yeah

or how to play it? :D

:anyone:

grappler
04-03-2009, 04:31 PM
start off with this

A--2--2--3-s-5-s-3-s-2-s-3----3-s-5-s-3-s-2--2--
E--3--3--5-s-7-s-5-s-3-s-5----5-s-7-s-5-s-3--3--
C--2--2------------------------------------------4--
G--0--0---------------------------------------------

A---------------------------------
E---------3-h-5-3-----------3--5
C--2--4------------4--2--4
G---------------------------------

A---3-s-5-s-3-s-2-s-3----3-s-5-s-3-s-2--2--
E---5-s-7-s-5-s-3-s-5----5-s-7-s-5-s-3--3--
C-------------------------------------------4--
G----------------------------------------------


A---2--3--5--2--------------------
E---3------------3-------------3--
C---4---------------2-s-4-s-2----
G----------------------------------


Im horrible with tabbing
LOL but i think i got it right

grappler
04-04-2009, 02:21 AM
here it is matt

http://ukuleleunderground.com/2009/04/04/uke-lesson-16-stuck-on-you/

Fred Miu
04-04-2009, 07:04 AM
lol dont forget we have the [Code]

UkuLeLesReggAe
04-04-2009, 06:53 PM
oooh... its the lesson -.-

sorry, the video wouldn't load. thanks a lot for the tabs :D