PDA

View Full Version : Jingle Bell Rock Ukulele cover



DSmusic
12-16-2015, 12:38 PM
I had a quick opportunity to film near a Christmas tree (which I don't have) so I recorded this.
I think it turned out okay, especially since I'm just getting over a cold..
Let me know what you think. Happy holidays!

https://www.youtube.com/watch?v=32pQJioxHTo

Phuufme
12-22-2015, 03:21 PM
I had a quick opportunity to film near a Christmas tree (which I don't have) so I recorded this.
I think it turned out okay, especially since I'm just getting over a cold..
Let me know what you think. Happy holidays!

https://www.youtube.com/watch?v=32pQJioxHTo

nice, do you have that opening lick in uke tab?

DSmusic
12-24-2015, 10:31 AM
nice, do you have that opening lick in uke tab?

Yeah.
It took me so long to figure it out.
Probably the hardest part of the whole song was finding a version that sounded correct lol.
This is my first time writing tabs so bare with me. Ha.

A |-7-7-7--7-7-7--7-10------------------------------------------|
E |-8-8-8--7-7-7-----------8-10-10^-8-----------3-1-0-----|
C |------------------------------------------------9-----------------2--|
G |---------------------------------------------------0------------------|

Oh, and thanks! I'm glad you enjoyed it. :)

Phuufme
12-26-2015, 03:05 AM
Yeah.
It took me so long to figure it out.
Probably the hardest part of the whole song was finding a version that sounded correct lol.
This is my first time writing tabs so bare with me. Ha.

A |-7-7-7--7-7-7--7-10------------------------------------------|
E |-8-8-8--7-7-7-----------8-10-10^-8-----------3-1-0-----|
C |------------------------------------------------9-----------------2--|
G |---------------------------------------------------0------------------|

Oh, and thanks! I'm glad you enjoyed it. :)

Thanks for the tab

Dan Uke
12-26-2015, 06:22 AM
that was festive and thanks for sharing the intro