PDA

View Full Version : And I love her



zztush
08-26-2017, 02:14 AM
And I love her is one of my favorite Beatles song. I believe this is very good arpeggio lesson for beginners. First guitar is played by George Harrison with his classical(nylon string) guitar. Second guitar is played by John Lennon with his acoustic guitar.

https://s27.postimg.org/4ivspovtf/combine_images1.jpg (https://postimages.org/)

George played it's arpeggio with top three strings on his guitar. Hence we can play it in same manner on our ukulele(See the figure above). I changed key from C#m (original) to Am. This transpose brings us low position, open strings, better play-ability and pretty ukulele sound. Bridge should be played slow strumming. Enjoy!




[Intro]

A |----------0-----------0-------------
E |----1--0--1-----1--0--1-----1--0----
C |-0--------2--0--------2--0----------
G |----------2-----------2-------------

[Verse]

A |-------0--------------0--------------0--------------0-------
E |----1-----1--------1-----1--------0-----0--------0-----0----
C |-2--------------2--------------0--------------0-------------
G |------------------------------------------------------------
I give her all my love


A |-------0--------------0--------------0--------------0-------
E |----1-----1--------1-----1--------0-----0--------0-----0----
C |-2--------------2--------------0--------------0-------------
G |------------------------------------------------------------
That's all I do

A |-------0--------------0--------------0--------------0-------
E |----1-----1--------1-----1--------0-----0--------0-----0----
C |-2--------------2--------------0--------------0-------------
G |------------------------------------------------------------
And if you saw my love

A |-------0--------------0--------------2--------------2----------
E |----1-----1--------1-----1--------1-----1--------1-----1-------
C |-0--------------0--------------2--------------2----------------
G |---------------------------------------------------------------
You'd love her to I

A |-------0--------------0----------------
E |----0-----0--------0-----0--------0----
C |-0--------------0--------------0-------
G |---------------------------------------
love her

[Bridge]

Am G
A love like ours
Am Em
Could never die
Am Em
As long as I
G G7
Have you near me