PDA

View Full Version : Thug Mansion



noknok
12-18-2007, 08:53 PM
Iv seen only 2 people play this song on youtube. Does anybody know how to play it and could help me in learning it? lol :D

puremarkska
12-18-2007, 10:42 PM
I seen one on youtube, but when i tried to copy the way he was holding his chords, it didn't sound like his. I don't think his uke was tuned ... :confused: After listening the the acoustic with pac, I'm thinking, chord-wise, it sounds more like:

G# (5343)
Cm (5333)
Bbm (3111) - Cm - Fm (5543)
Bbm - Cm - A#dim (6464)

I'm not too sure if those are right, but sounds almost like it to me. There are a bunch of picking fills in there too, but it changes a lot on the acoustic version. I'll try see what I can get - if you figure out some stuff too, let me know. Shoots.

ChamorroDT
01-04-2008, 04:50 PM
The actual chords are...

http://img118.imageshack.us/img118/9500/chordsdu9.jpg

So...here's the strum

G# - Cm - A#m/Cm/A#m(high) -> A#m/Cm/A#m(high) BUT, once you strum the last chord, slide it down two frets.

That should be it.

jaggtmolina
04-14-2008, 09:56 PM
http://youtube.com/watch?v=GmsZnzksTZE&feature=related

another dope cover. i got the chords by looking at it. i just need help with the intro. thanks UU!

UkuLeLesReggAe
04-15-2008, 03:40 AM
hahaha i had gently weeps on and i thought u were playing.. i was like O.O

nice take :D very nice indeed

seeso
04-16-2008, 10:27 AM
|----3-------3---|----4-3---------|----6-------6---|----6/8-8\6-----|
|----4-------4---|--------6-------|----6-------6---|----6/8-8\6-----|
|3---3-------3---|------------5---|3/--7-------7---|----------------|
|----5-------5---|----------------|----8-------8---|----------------|
1 2 3 4 1 2 3 4 1 2 3 4 1 2 3 4

|4-------6---10--|----10--10------|4-------6---13--|----13--13------|
|4-------6---10--|----10--10------|4-------6---13--|----13--13------|
|5-------7---10--|----10--10------|5-------7---13--|----13--13------|
|6-------9---10--|----10--10------|6-------9---13--|----13--13------|
1 2 3 4 1 2 3 4 1 2 3 4 1 2 3 4



I know you got the chords, but here they are for people who don't know:

| G# - - - | (G#) - - - | D# - - - | D# - - - |
| C# - D# E#m | (E#m) - - - | C# - D# A#m | (A#m) - - - |

FunkyPeaNutZ
04-16-2008, 02:12 PM
Hey, um....so....other than the original video, who is gonna work on this piece and post a vid? Who's gonna Jason Castro it? aka half-ass it...sorry my attempt at cheap humor. Trying to come up with some new terminology.

FunkyPeaNutZ
04-16-2008, 02:15 PM
BTW no disrespect to the girl who originally posted the vid. I bet with more practice, she'd probably nail the song.

jaggtmolina
04-16-2008, 02:24 PM
thanks seeso.

seeso
04-17-2008, 08:23 AM
I think I came up with an easier way to play this song.

It's in G, and I think it sounds better/closer to the real thing.




|----2-------2---|----3-2---------|----2-------2---|----5/7-7\5-----|
|----3-------3---|----3---5-3-----|----2-------2---|----5/7-7\5-----|
|0---2-------2---|----2-------4---|----2-------2---|----------------|
|----4-------4---|----x-----------|----4-------4---|----------------|
1 2 3 4 1 2 3 4 1 2 3 4 1 2 3 4

|3-------5---7---|--------x-------|3-------5---6---|--------x-------|
|5-------7---8---|--------x-------|5-------7---8---|--------x-------|
|4-------6---7---|--------x-------|4-------6---7---|--------x-------|
|5-------7---9---|--------x-------|5-------7---8---|--------x-------|
1 2 3 4 1 2 3 4 1 2 3 4 1 2 3 4



| G - - - | (G) - - - | Bm - - - | Bm - - - |
| Am - Bm C | (C) - - - | Am - Bm Cm | (Cm) - - - |

http://i138.photobucket.com/albums/q271/seeso_photos/videos/th_thugzmansion.jpg (http://s138.photobucket.com/albums/q271/seeso_photos/videos/?action=view&current=thugzmansion.flv)

FunkyPeaNutZ
04-17-2008, 10:21 AM
sounds nice seeso. Looks like I'll be hitting you up for some hip hop tabs..lol

dmassop
04-17-2008, 05:08 PM
thanks so much seeso, i owe you a lot man.
p.s. i'm starting to like my version of under the bridge, not neally as cool as yours though

jaggtmolina
04-18-2008, 12:14 AM
seeso! you did it again. hey thanks for uploading the vid. it's pretty clean, i like it.

seeso
04-20-2008, 05:20 AM
Updated tabs in the Tab section.

http://www.ukuleleunderground.com/forum/showthread.php?t=1967