PDA

View Full Version : All My Life- Kci and Jojo



chingy51o
03-17-2008, 07:30 PM
can someone make me a tab or give me the chords for this song please. thanks heres a link to the song

http://youtube.com/watch?v=DYJUysMGpZg

Ukulele_Junkie
03-17-2008, 07:37 PM
eddie posts on here, jus PM him and he'll get to u, but i'm sure he got some help from tropical storm hawaii.

http://www.tropicalstormhawaii.com/cgi-bin/view.cgi?pid=songlist&sc=tb

ukusaurus
03-17-2008, 07:44 PM
Found this.... Might be wrong.


Intro (play twice):

Dm - C - G

C - G/B - Am



Verse:

C Am

I will never find another lover sweeter than

F G

you, sweeter than you

C Am

I will never find another lover more precious than

F G

you, more precious than you

C

Girl You are Close to me you're like my mother,

Am

Close to me you're like my father,

F

Close to me you're like my sister,

G

Close to me you're like my brother

Am Dm F G

You are the only one my everything and for you this song I sing



Chorus:



Dm C G C Am

All my life, I pray for someone like you,

Dm C G C Am

I thank God that I, that I finally found you

Dm C G Em Am

All my life I pray for someone like you

F G C G/B Am

And I hope that you feel the same way too

F G

Yes, I pray that you do, love me too



Interlude:

C - Am - F - G (2x)



Verse #2:

C Am

Said I promised to never fall in love with a stranger,

F G

You're all I'm thinking of I praise the Lord above,

C Am F

For sending me your love, I cherish every hug,

G

I REALLY LOVE YOU!!!





Chorus #2:



Dm C G C Am

All my life, I pray for someone like you,

Dm C G C Am

I thank God that I, that I finally found you

Dm C G Em Am

All my life I pray for someone like you

F G C G/B Am

And I hope that you feel the same way too

F G

Yes, I pray that you do, love me





Bridge:



Dm G

You're all that I've ever known, your smile on your face,

C G/B Am

all I see is a glow,

Dm G C G/B Am

You turned my life around, You picked me up when I was down,

Dm G

You're all that I've ever known, when you smile your face glows,

C G/B Am

You picked me up when I was down

Dm G

You're all that I've ever known, when you smile your face glows,

C G/B Am F G

You picked me up when I was down & I hope that you feel the same way

C G/B Am

too,

F G C G/B Am

Yes I pray that you do love me too



Dm C G C Am

All my life, I pray for someone like you,

Dm C G C Am

I thank God that I, that I finally found you







All my life I pray for someone like you

I hope that you feel the same way too

Yes, I pray that you do, love me too

All my life I pray for someone like you

kebi
03-17-2008, 08:40 PM
you know the picking to this song?

ukusaurus
03-17-2008, 08:52 PM
No but just picking the chords in the appropriate places sounds right to me? Again I could be totally wrong as I just found the song after seeing this.

experimentjon
03-17-2008, 10:30 PM
This is what I got for the first part of the picking...but then I realized that I have to go do other stuff. XD Maybe someone else can fill in the rest of the picking.


Gm F C

G------------------0-------0------------
C---2------------1--------------0-------
E-----3--------0------------------------
A-1-----1----2---------------------3----

davoomac
03-17-2008, 11:03 PM
I played with those chords that were posted and they sound pretty good :D


This is what I got for the first part of the picking...but then I realized that I have to go do other stuff. XD Maybe someone else can fill in the rest of the picking.


Gm F C

G------------------0-------0------------
C---2------------1--------------0-------
E-----3--------0------------------------
A-1-----1----2---------------------3----

Hey you should invert your little tab here jon. so it should be:

A-----------
C-----------
E-----------
G-----------

experimentjon
03-18-2008, 04:37 PM
I played with those chords that were posted and they sound pretty good :D



Hey you should invert your little tab here jon. so it should be:

A-----------
C-----------
E-----------
G-----------

:) I realized that after I typed it, but had turned off my computer already. A bit of tab dyslexia there. :P I blame it on the fact that it was late. XD

Misguided Musician
03-18-2008, 04:45 PM
oh wow haha. Well I basically pick around Gm,F,C, and then F, C, and Dm. The chords I strum are F,Dm,Bb, and B.

eddie posts on here, jus PM him and he'll get to u, but i'm sure he got some help from tropical storm hawaii.

http://www.tropicalstormhawaii.com/cgi-bin/view.cgi?pid=songlist&sc=tb
actually ukulele junkie, I did that by ear for guitar first. Then I learned they had the chords online (boy did I feel stupid) but I didn't feel they were as accurate. Then I basically transrcibed it to ukulele.

Ukulele_Junkie
03-18-2008, 05:07 PM
oh wow haha. Well I basically pick around Gm,F,C, and then F, C, and Dm. The chords I strum are F,Dm,Bb, and B.

actually ukulele junkie, I did that by ear for guitar first. Then I learned they had the chords online (boy did I feel stupid) but I didn't feel they were as accurate. Then I basically transrcibed it to ukulele.

ha thought it sounded pretty good, good stuff bruddah man.:D

Misguided Musician
03-18-2008, 05:09 PM
haha thanx.

chingy51o
03-18-2008, 06:03 PM
can someone finish the tab for the picking part please. thanks

Ukulele_Junkie
03-18-2008, 08:37 PM
can someone finish the tab for the picking part please. thanks

This is close i think.



A-1-----1--0-----0-------3-------0---------------------|
E---3--------1-----3---------1-3-----1-3s5-3---1-3-1---|
C-----2--------0-----0-------------0----------0--------|
G------------------------------------------------------|


oh yeah i checked the tropical storm hawaii tab of this haha it sucks on ice....

davoomac
03-18-2008, 10:50 PM
Okay so I tabbed it out with the actual song. If you want to play the same notes as the kc and jojo version put a capo on the first fret.

This tab should be the same as what the piano plays in their actual song. :D



Intro to KC and JoJo's 'all my ilfe'
tabbed by davoo
A|--8--------8----7------7----5-----10-------------7-------7-----|
E|--10----10------8----8------7-----------8--10----8-----8-------|
C|------9------------7--------7--7---------------------7---------|
G|---------------------------(7)---------------------------------|

A|--5------5----3------------5--7--8--------8----7-------7-------|
E|--7----7------5------5--8--------10----10------8-----8---------|
C|-----7--------4----------------------9-------------7-----------|
G|-------------(5)-----------------------------------------------|

A|--5---10----------7------7----5------5-----3--------5--7-------|
E|--7-------10------8----8------7----7-------5---5--8------------|
C|--7-----------7------7-----------7---------4-------------------|
G|-(7)--------------------------------------(5)------------------|

repeat however many times you want :)

NATOroboto
04-29-2008, 06:30 PM
nice i like the way it sounds