PDA

View Full Version : If I aint got you - Alicia Keys cover



Aldrine Guerrero
03-18-2008, 08:55 PM
Recorded during one of our practices hahaha. Sorry so sloppy... we're workin on it :3

http://www.youtube.com/watch?v=B21dHWDE_ug

experimentjon
03-18-2008, 09:02 PM
Woah. That was pretty awesome. How does that opening riff on ukulele go? The vocals were very good too! What's the name of the band?

UkuLeLesReggAe
03-18-2008, 11:26 PM
thats really awesome, sounds very similar to the normal version.

keep working on it :)

studentaccount1
03-18-2008, 11:41 PM
Woah. That was pretty awesome. How does that opening riff on ukulele go? The vocals were very good too! What's the name of the band?

in G (i think they're playing in G) the chords are Gmaj7 Amin7 Bmin7 CMaj7 played like:



-----2----3----5---7--
-----2----3----5---7--
-----2----4----6---7--
-----0----2----4---5--

then arpeggiate in triplet 8ths(you can hear the rhythm in the vid):

---7---7---7---
----7---7---7--
-----7---7---7- X2
---------------

---5---5---5---
----7---7---7--
-----6---6---6- X2
---------------

---3---3---3---
----5---5---5--
-----4---4---4- X2
---------------

---2---2---2---
----2---2---2--
-----2---2---2- X2
---------------



or something to that effect

seeso
03-20-2008, 09:43 PM
Woah. That was pretty awesome. How does that opening riff on ukulele go? The vocals were very good too! What's the name of the band?



Intro to
If Ain't got you
by Alicia Keys
tabbed by davoo

A|-7----7----7----7----7----7-----5----5----5----5----5----5-----|
E|---7----7----7----7----7----7-----5----5----5----5----5----5---|
C|-----7----7----7----7----7----7-----6----6----6----6----6----6-|
G|---------------------------------------------------------------|
Cmaj7 Bm7

A|-3----3----3----3----3----3----2----2----2----2----3----5------|
E|---3----3----3----3----3----3----2----2----2----2----3----5----|
C|-----4----4----4----4----4----4----2----2----2----2----4----6--|
G|---------------------------------------------------------------|
Am7 Gmaj7

A|-7----7----7----7----7----7-----5----5----5----5----5----4-----|
E|---7----7----7----7----7----7-----5----5----5----5----5----4---|
C|-----7----7----7----7----7----7-----6----6----6----6----6----5-|
G|---------------------------------------------------------------|
Cmaj7 Bm7

A|-3----3----3----3----3----3--------2--------3---2--------------|
E|---3----3----3----3----3----3------2--------0---2--------------|
C|-----4----4----4----4----4----4----2--------0---2--------------|
G|-----------------------------------0--------0---0--------------|
Am7 Gmaj7 C Gmaj7

clevacheva
03-22-2008, 06:53 AM
i neeeeeeeeeed to learn this song

4strings707
03-22-2008, 08:49 AM
Great job!! At the beginning tho you were playing it in 4/4, or something like that. I think its in 3/4 or 6/4. but anyway...you picked it up afterward.

seth
03-23-2008, 02:43 PM
wow thats really good! i'm VERY impressed. great job for your first run through on that song!