PDA

View Full Version : Cover this!



UKESTAR
03-19-2008, 03:37 PM
Someone with a voice and some uke skills has got to cover this one. I heard it in the movie called "Into the Wild". It is performed by a fellow uker....Eddie Vedder of Pearl Jam.

Check it out. Plus someone tab this one out!!

http://www.youtube.com/watch?v=GXVpjjpwNss

russ_buss
03-19-2008, 03:59 PM
i may be wrong, but that sounds like a mandolin.

in any case, it's a nice song and probably would translate nicely to ukulele.:)

davoomac
03-19-2008, 09:16 PM
ahhh awesome. I like that song. Now I have something new to work on :D

try figuring it out!

studentaccount1
03-19-2008, 10:13 PM
i may be wrong, but that sounds like a mandolin.

in any case, it's a nice song and probably would translate nicely to ukulele.:)

It is a mandolin.

From listening to it the basic chords for the verses are voiced like:
G (x2)


-----14-///--14--12--10-
------7-///---7---7---7-
------7-///---7---7---7-
------0-///---0---0---0-


C (x2)


-----7-///---7--9--7-
-----8-///---8--10-8-
-----7-///---7--7--7-
-----0-///---0--0--0-


Rise up....
D G C (etc)


----9-//-10--7-5-7
---10-//--7--8-8-8
----9-//--7--7-7-7
------//--0--0-0-0


then:
G


-----7-///---7--9--7-
-----8-///---8--10-8-
-----7-///---7--7--7-
-----0-///---0--0--0-


But if you got this far you can probably figure out the rest by ear.

UKESTAR
03-20-2008, 08:01 AM
It is a mandolin.

From listening to it the basic chords for the verses are voiced like:
G (x2)


-----14-///--14--12--10-
------7-///---7---7---7-
------7-///---7---7---7-
------0-///---0---0---0-


C (x2)


Rise up....
D G C (etc)


then:
G


But if you got this far you can probably figure out the rest by ear.

Wow..those are some challenging chords! Thanks a lot..I will get working on it..

seth
03-23-2008, 04:18 PM
tagging this for later.