PDA

View Full Version : Whooo-ooaaahh..... Amber is the coluh of ya energy...



KoApplauseUkuleleplayer
03-21-2008, 05:17 PM
anybody know dat song tabs. by 311 called amber.. i know aldrine does right aldrine ;)?

seeso
03-21-2008, 05:37 PM
diezo808, one of our members, does it on YouTube.

http://youtube.com/watch?v=tESicuKrjmE

Misguided Musician
03-21-2008, 06:29 PM
diezo808 does it on a 6 string. I can do it on a 4 string. I'll post up the video sometime next week.

NukeDOC
03-21-2008, 07:53 PM
diezo808 does it on a 6 string. I can do it on a 4 string. I'll post up the video sometime next week.
i believe diezo's is an 8 string.

dakine2009
03-21-2008, 08:46 PM
Does anyone have the tabs for Amber by 311....
i know there's videos on youtube, but i just can't seem to figure it out.
thanks!

degracia
03-21-2008, 09:40 PM
I partly figured out this song a couple days ago.
Truly a dope song on a uke, and not to mention on a bass too.

Intro;
|----------2--------------3--7---3------------2-------2-
|--0h1--3----3------3h5---------------0h1--3----3--3--3
|--------------------------------------------------------
|--------------------------------------------------------

^^* REPEAT x2 *^^

Chords;
|---3-3----3-3----2-2----2-2
|---3-3----5-5----3-3----3-3
|---4-4----4-4----4-4----2-2
|---5-5----5-5----4-4----4-4

^^* REPEAT x? *^^

That's all I remember. Intro, plus chords.

dakine2009
03-21-2008, 10:06 PM
thanks so much!
i was going crazy over here.
XD

degracia
03-21-2008, 10:14 PM
Yeah, there is also another thread on this song. I contributed in there and posted my tabs for it.

dakine2009
03-21-2008, 10:18 PM
I partly figured out this song a couple days ago.
Truly a dope song on a uke, and not to mention on a bass too.

Intro;
|----------2--------------3--7---3------------2-------2-
|--0h1--3----3------3h5---------------0h1--3----3--3--3
|--------------------------------------------------------
|--------------------------------------------------------

^^* REPEAT x2 *^^

Chords;
|---3-3----3-3----2-2----2-2
|---3-3----5-5----3-3----3-3
|---4-4----4-4----4-4----2-2
|---5-5----5-5----4-4----4-4

^^* REPEAT x? *^^

That's all I remember. Intro, plus chords.




courtesy of degracia.

=D

Fred Miu
03-21-2008, 10:33 PM
merged threads with the other "Amber"

droplister
04-01-2008, 01:51 PM
I only bother to play the two catchy bits, they are probably way off if you try to play it with the song.

With a low g I play it like this...


E------------------0---------------------
A-------0------0h1---1-------0------0----
C-----0---0--2-------------0---0--0---0--
G-0h2------------------0h2---------------

E----------------------------------
A--7s8-10-12-10-8-10-7--7-10-7-----
C----------------------------------
G----------------------------------

orngandblu
06-13-2011, 08:17 AM
What does the 3h5 mean in the chords?

seeso
06-13-2011, 09:00 AM
What does the 3h5 mean in the chords?

That's a hammer-on. Fret 3 and hammer-on to 5.

http://ukuleleunderground.com/2008/04/uke-minutes-10-hammer-ons/