PDA

View Full Version : John Legend - Save Room



degracia
03-29-2008, 12:44 PM
I haven't seen someone perform this song with the picking/tabbing of it on the uke. Although, I know the chords but I can't seem to figure out the picking for the song.

I like the acoustic version of ch1ldpr0digy's on youtube;
http://youtube.com/watch?v=2XCQEzVwLtI

The way he does intro is dope. Anybody know??

Am G Am G Am G C Bm is the chords, btw.

studentaccount1
03-29-2008, 04:14 PM
Low G tuning:


: Am(9) GMaj7
A-----2---0---------------------
E-----0------3-2--------3------
C-----0--------2--2-2h4--------
G---2----------0----0----------

Am(9) GMaj7
A-----2---0---------------------
E-----0------3---2----3-2-------
C-----0----------2--2------------
G--2--2----------0----0---------

Am(9) GMaj7
A-----2---0----------------------
E-----0------3-2-----------------
C-----0--------2---2---4---2-----
G---2----------0-----------------

CMaj7
A--------2---2------------------
E--------0---0---3-5-3-2--------
C----0-------0------------------
G-------------------------------

(Am)
Say that you'll stay.....

Aldrine Guerrero
03-29-2008, 07:37 PM
Dang... Danyo and I were just jammin this song the other day hahaha. I forgot the chords that I played... LOL