PDA

View Full Version : I'll Be Here A While



fredylg
03-29-2008, 06:18 PM
Hey Am Looking For The Tab Of 311's Ill Be Here A While , Can Anyone Help Me Out ? Thanks

octopusike
08-24-2010, 11:35 AM
This is a fun song to play!!! Hope it works or guides you in a good direction.
Lead Uke



A |--7--------7--7--------7----|-----7-----9-----7--9-------|
E |--8--------8--8--------8----|-----8-----8-----8--8-------|
C |--9--------9--9--------9----|-----9-----9-----9--9-------|
G |----------------------------|----------------------------|


--10-------10----------5L---|
--7-----------3--7----------|
--7--------11-11-7----------|
-----------0--11-9-----0L---|


--5-----------3-----2L----2--------0--2-----3-------|
--------3L----3L----3L----3-----3h------------------|
----------------------------------------------------|
--0-----5-----------------------------2L----2-------|


-----------7--7--------7----|-----7-----9-----7--9s------|
-----------8--8--------8----|-----8-----8-----8--8-------|
-----------9--9--------9----|-----9-----9-----9--9-------|
--2-------------------------|----------------------------|


--10-------9--------7-------|-----------------2h-3-------||---------------|
--------------7--------7----|-----------8----------------||o--------------|
-----11----------7----------|--7-----7-------------------||o--------------|
--------0-------------------|-----7--------0-------------||---------------|


----------------|----------------|---------------|||---------------|
----------------|----------------|--------------o|||o--------------|
----------------|----------------|--------------o|||o--------------|
----------------|----------------|---------------|||---------------|


----------------|----------------|---------------|||---------------|
----------------|----------------|--------------o|||o--------------|
----------------|----------------|--------------o|||o--------------|
----------------|----------------|---------------|||---------------|


----------------|----------------|---------------|||---------------|
----------------|----------------|--------------o|||o--------------|
----------------|----------------|--------------o|||o--------------|
----------------|----------------|---------------|||---------------|


----------------|----------------|---------------|||---------------|
----------------|----------------|--------------o|||o--------------|
----------------|----------------|--------------o|||o--------------|
----------------|----------------|---------------|||---------------|


----------------|----------------|---------------|||---------------|
----------------|----------------|--------------o|||o--------------|
----------------|----------------|--------------o|||o--------------|
----------------|----------------|---------------|||---------------|


----------------|----------------|---------------|||-7--------7--7--------7----|
----------------|----------------|--------------o|||o8--------8--8--------8----|
----------------|----------------|--------------o|||o9--------9--9--------9----|
----------------|----------------|---------------|||---------------------------|


-----7-----9-----7--9-------|--10-------10----------5L---|
-----8-----8-----8--8-------|--7-----------3--7----------|
-----9-----9-----9--9-------|--7--------11-11-7----------|
----------------------------|-----------0--11-9-----0L---|


--5-----------3-----2L----2--------0--2-----3------|||
--------3L----3L----3L----3-----3h----------------o|||
--------------------------------------------------o|||
--0-----5-----------------------------2L----2------|||


---------------------------|----------------------------|
o--------------------------|----------------------------|
o--------------------------|----------------------------|
---------------------------|----------------------------|


----------------------------|---------------------------|||
----------------------------|--------------------------o|||
----------------------------|--------------------------o|||
----------------------------|---------------------------|||


---------------------------|----------------------------|
o--------------------------|----------------------------|
o--------------------------|----------------------------|
---------------------------|----------------------------|


----------------------------|---------------------------|||
----------------------------|--------------------------o|||
----------------------------|--------------------------o|||
----------------------------|---------------------------|||


-7--------7--7--------7----|-----7-----9-----7--9-------|
o8--------8--8--------8----|-----8-----8-----8--8-------|
o9--------9--9--------9----|-----9-----9-----9--9-------|
---------------------------|----------------------------|


--10-------10----------5L---|
--7-----------3--7----------|
--7--------11-11-7----------|
-----------0--11-9-----0L---|

^
--5-----------3-----2L----2--------0--2-----3------||--10L--|--10---||
--------3L----3L----3L----3-----3h----------------o||-------|-------||
--------------------------------------------------o||--7L---|--7----||
--0-----5-----------------------------2L----2------||--7L---|--7----||

octopusike
08-24-2010, 11:36 AM
Second Uke (Chorus Uke)


----7-----7-----7-----7----|-----7-----7-----7-----7----|
o---8-----8-----8-----8----|-----8-----8-----8-----8----|
o---9-----9-----9-----9----|-----9-----9-----9-----9----|
---------------------------|----------------------------|


-----10----10----10----10---|-----10----10----10----10--|||
-----10----10----10----10---|-----10----10----10----10-o|||
-----11----11----11----11---|-----11----11----11----11-o|||
----------------------------|---------------------------|||


----14----14----14----14---|-----14----14----14----14---|
o---14----14----14----14---|-----14----14----14----14---|
o---14----14----14----14---|-----14----14----14----14---|
---------------------------|----------------------------|


-----10----10----10----10---|-----10----10----10----10--|||
----------------------------|--------------------------o|||
-----11----11----11----11---|-----11----11----11----11-o|||
-----9-----9-----9-----9----|-----9-----9-----9-----9---|||


-10-10----10-10-10----10---|--10-10----10-10-10-10-10---|
o3--7-----3--7--7-----3----|--7--7-----3--7--7--7--7----|
o11-7-----11-7--7-----11---|--7--7-----11-7--7--7--7----|
-9--9-----9--9--9-----9----|--9--9-----9--9--9--9--9----|


--10-10----10-10-10----10---|--10-10----10-10-10-10-10--|||
--10-10----10-10-10----10---|--10-10----10-10-10-10-10-o|||
--11-11----11-11-11----11---|--11-11----11-11-11-11-11-o|||
--0--0-----0--0--0-----0----|--0--0-----0--0--0--0--0---|||


----7-----7-----7-----7----|-----7-----7-----7-----7----|
o---8-----8-----8-----8----|-----8-----8-----8-----8----|
o---9-----9-----9-----9----|-----9-----9-----9-----9----|
---------------------------|----------------------------|


-----10----10----10----10---|-----10----10----10----10--|||
-----10----10----10----10---|-----10----10----10----10-o|||
-----11----11----11----11---|-----11----11----11----11-o|||
----------------------------|---------------------------|||


----14----14----14----14---|-----14----14----14----14---|
o---14----14----14----14---|-----14----14----14----14---|
o---14----14----14----14---|-----14----14----14----14---|
---------------------------|----------------------------|


-----10----10----10----10---|-----10----10----10----10--|||
----------------------------|--------------------------o|||
-----11----11----11----11---|-----11----11----11----11-o|||
-----9-----9-----9-----9----|-----9-----9-----9-----9---|||


-10-10----10-10-10----10---|--10-10----10-10-10-10-10---|
o3--7-----3--7--7-----3----|--7--7-----3--7--7--7--7----|
o11-7-----11-7--7-----11---|--7--7-----11-7--7--7--7----|
-9--9-----9--9--9-----9----|--9--9-----9--9--9--9--9----|


--10-10----10-10-10----10---|--10-10----10-10-10-10-10--|||
--10-10----10-10-10----10---|--10-10----10-10-10-10-10-o|||
--11-11----11-11-11----11---|--11-11----11-11-11-11-11-o|||
--0--0-----0--0--0-----0----|--0--0-----0--0--0--0--0---|||


----7-----7-----7-----7----|-----7-----7-----7-----7----|
o---8-----8-----8-----8----|-----8-----8-----8-----8----|
o---9-----9-----9-----9----|-----9-----9-----9-----9----|
---------------------------|----------------------------|


-----10----10----10----10---|-----10----10----10----10--|||
-----10----10----10----10---|-----10----10----10----10-o|||
-----11----11----11----11---|-----11----11----11----11-o|||
----------------------------|---------------------------|||


-------------------9L------|
o---------10---------------|
o11------------------------|
---------------------------|


--9-----------------------------------9h-10h9-------------------------------|
-----------7L-------7--------------------------10L------10------------------|
----------------------------------------------------------------------------|
----------------------------------------------------------------------------|


----------------------------|
-----------12---------------|
--11------------------------|
--------------------12L-----|


--------------10h9L-9------------------------------------------------------|||
--------------------------------------------------------7-----------------o|||
--------------------------------------------------------------------------o|||
--12-------11h------------------------9------------------------------------|||


----------------2-----7L---|--7----|-----------------------10L--|--10--|||
o--------------------------|-------|--------------7-------------|-----o|||
o0-------------------------|-------|--7-------------------------|-----o|||
-------------0-------------|-------|-----------------7----------|------|||


----7-----7-----7-----7----|-----7-----7-----7-----7----|
o---8-----8-----8-----8----|-----8-----8-----8-----8----|
o---9-----9-----9-----9----|-----9-----9-----9-----9----|
---------------------------|----------------------------|

^
-----10----10----10----10---|-----10----10----10----10--||--10L--|--10---||
-----10----10----10----10---|-----10----10----10----10-o||--10L--|--10---||
-----11----11----11----11---|-----11----11----11----11-o||--11L--|--11---||
----------------------------|---------------------------||--0L---|--0----||