PDA

View Full Version : Black Sabbath tabs



vialde
04-07-2008, 05:19 AM
Does anyone have tabs or chords for any Black Sabbath songs?

seeso
04-07-2008, 06:17 AM
It's not a Sabbath tune, but I did "Crazy Train" a while back. There's a link to download the tabs in the video description.

http://www.youtube.com/watch?v=0zxjX8cj6CY

vialde
04-07-2008, 11:36 PM
Cheers for that Seeso. I'll have a look at that.

seeso
05-06-2008, 07:59 AM
So I've been working on a version of Black Sabbath's "War Pigs". I've still got some work to do, but here are the main riffs and stuff.

I took it down to Dm, it's easier to play it there.



War Pigs Riffs
SABBATH

Riff 1:
|00--------------|----------------|00--------------|----------------|
|01--------------|----------------|01--------------|----------------|
|02--------------|----------------|02--------------|----------------|
|02--------------|----------------|02--------------|----------------|
Generals gathered in their masses...

Riff 2:
|00----------8-7-|6-------5-------|00----------8-7-|6-------5-------|
|01----------5-4-|3-------5-------|01----------5-4-|3-------5-------|
|02----------5-4-|3-------5-------|01----------5-4-|3-------5-------|
|02----------5-4-|3-------7-------|02----------5-4-|3-------7-------|

Riff 3:
|00--5-----------|00--5-----------|00--5-----------|00--5-----------|
|01--5--1-1--5---|01--5--1-1--5---|01--5--1-1--5---|01--5--1-1--5---|
|02--5--2-2--5---|02--5--2-2--5---|02--5--2-2--5---|02--5--2-2--5---|
|02-----2-2--5---|02-----2-2--5---|02-----2-2--5---|02-----2-2--5---|

Riff 4:
|--------5-3-----|--------5-3-----|--------5-3-----|--------5-3-----|
|--------5-3-----|--------5-3-----|--------5-3-----|--------5-3-----|
|2-------------2-|--2---------5---|2-------------2-|--2---------5---|
|----------------|----------------|----------------|----------------|
Politicians hide themselves away...