PDA

View Full Version : chordie-ultimate guitar tabs HELP



piratesarrcool
01-14-2008, 10:24 PM
Hey all, i am having a lot of trouble figuring out how to use the chordie/ultimate guitar site that allows you to transpose chords into ukulele chords. i greatly want to learn Screaming Infidelities by Dashboard Confessional on ukulele:

http://www.chordie.com/chord.pere/www.ultimate-guitar.com/print.php?what=tab&id=152603&1944-06-06=always&transpose=&tuning=GCEA

am i supposed to adjust the semitones myself or what?

can anyone tell me how I can get the correct sounding chords for ukulele using the options on this site? thanks!

deadeye
01-15-2008, 02:34 AM
if you play an A on the ukulele its the same sound as an A on the guitar

so if they are the correct guitar chords then it should sound similar on ukulele

however it might not be the correct guitar chords which could be why you think it sounds wrong.

if u dont mind it sounding a bit different, i like to try +5 semitones and see which i think sounds better. but if you transpose it +5 semitones u cant play along...

Woodshed
01-15-2008, 08:54 AM
Those chords are in the wrong key. You might try these chords (http://www.chordie.com/chord.pere/www.ultimate-guitar.com/print.php?what=tab&id=152603&1944-06-06=always&tuning=GCEA&transpose=4). But they're still not right. And it's in a uke unfriendly key.

The problems is that the original is in a weird tuning.

octopusike
08-28-2010, 12:32 AM
I find that many of the songs I want to play I have to use triplets rather then full chords or a segment of a chord to get the correct sound. This just happens to be one of those songs. I have some tabs that are good at stretching my fingers, but the sound is dead on to the song. Here's some tabs to experiment on.
A |--9--9--9--8--8g-8--8-----8g-8--8--8--8g-8----------|
E |--9--9--9--9--9g-9--9-----9g-9--9--9--9g-9--9--9----|
C |-----6--6--5--5g-5--5-----5g-5--5--5--5g-5----------|
G |--6--6--6--6--6g-6--6-----6g-6--6--6--6g-6--6--6----|


--4--4--4--4--4g-4--4-----4g-4--4--4--4g-4-----9----|
--9--9--9--9--9g-9--9-----9g-9--9--9--9g-9-----9----|
----------------------------------------------------|
--6--6--6--6--6g-6--6-----6g-6--6--6--6g-6--6--6----|


--9--9--9--8--8g-8--8-----8g-8--8--8--8g-8-----4----|
--9--9--9--9--9g-9--9-----9g-9--9--9--9g-9-----9----|
----------------------------------------------------|
--6--6--6--6--6g-6--6-----6g-6--6--6--6g-6--6--6----|


--4--4--4--6--6g-6--6-----6g-6-----6--6g-6--6s-9----|
--9--9--9--9--9g-9--9-----9g-9-----9--9g-9--9--9----|
----------------------------------------------------|
--6--6--6--6--6g-6--6-----6g-6--6--6--6g-6--6--6----|


--9--9--9--8--8g-8--8-----8g-8--8--8--8g-8----------|
--9--9--9--9--9g-9--9-----9g-9--9--9--9g-9--9--9----|
--6--6--6--5--5g-5--5-----5g-5--5--5--5g-5----------|
--6--6--6--6--6g-6--6-----6g-6--6--6--6g-6--6--6----|


--4--4--4--4--4g-4--4-----4g-4--4--4--4g-4-----9----|
--9--9--9--9--9g-9--9-----9g-9--9--9--9g-9-----9----|
----------------------------------------------------|
--6--6--6--6--6g-6--6-----6g-6--6--6--6g-6--6--6----|


--9--9--9--8--8g-8--8-----8g-8--8--8--8g-8-----4----|
--9--9--9--9--9g-9--9-----9g-9--9--9--9g-9-----9----|
----------------------------------------------------|
--6--6--6--6--6g-6--6-----6g-6--6--6--6g-6--6--6----|


--4--4--4--6--6g-6--6-----6g-6-----6--6g-6--6s-9----|
--9--9--9--9--9g-9--9-----9g-9-----9--9g-9--9--9----|
----------------------------------------------------|
--6--6--6--6--6g-6--6-----6g-6--6--6--6g-6--6--6----|


--9--9--9--8--8g-8--8-----8g-8--8--8--8g-8----------|
--9--9--9--9--9g-9--9-----9g-9--9--9--9g-9--9--9----|
--6--6--6--5--5g-5--5-----5g-5--5--5--5g-5----------|
--6--6--6--6--6g-6--6-----6g-6--6--6--6g-6--6--6----|


--4--4--4--4--4g-4--4-----4--4--4--4--4g-4s-9--9----|
--9--9--9--9--9g-9--9-----9--9--9--9--9g-9--9--9----|
----------------------------------------------------|
--6--6--6--6--6g-6--6-----6--6--6--6--6g-6--6--6----|


--9--9--9--8--8g-8--8-----8g-8--8--8--8g-8----------|
--9--9--9--9--9g-9--9-----9g-9--9--9--9g-9----------|
----------------------------------------------------|
--6--6--6--6--6g-6--6-----6g-6--6--6--6g-6--6-------|


--4--4--4--6--6g-6--6-----6--6-----6--6g-6-----6--6g-6--4--4----|
-----------9--9g-9--9-----9--9-----9--9g-9-----9--9g-9--9--9----|
----------------------------------------------------------------|
--6--6--6--6--6g-6--6-----6--6--6--6--6g-6-----6--6g-6--6--6----|


--8--9--11----11-9--8s-11-11----11-11-11-9--8-------|
--9--9--9-----9--9--9--9--9-----9--9--9--9--9-------|
----------------------------------------------------|
--6--6--6-----6--6--6--6--6-----6--6--6--6--6--6----|


--6-----6--6--8-----9--9--9-----------9-----9--9----|
--9-----9--9--9-----9--9--9-----------9-----9--9----|
----------------------------------------------------|
--6-----6--6--6-----6--6--6-----------6-----6--6----|


--9--8--4-----4g-4--4--4--6-----6--6--8s----11-11---|
--9--9--9-----9g-9--9--9--9-----9--9--9-----9--9----|
----------------------------------------------------|
--6--6--6-----6g-6--6--6--6-----6--6--6-----6--6----|


--11----11-11-11g11-11----11-11----11-11------------|
--9-----9--9--9g-9--9-----9--9-----9--9-----9--9----|
----------------------------------------------------|
--6-----6--6--6g-6--6-----6--6-----6--6-----6--6----|


--8--9--11----11-9--8s-11-11----11-11-11-9--8-------|
--9--9--9-----9--9--9--9--9-----9--9--9--9--9-------|
----------------------------------------------------|
--6--6--6-----6--6--6--6--6-----6--6--6--6--6--6----|


--6-----6--6--8-----9--9--9-----------9-----9--9----|
--9-----9--9--9-----9--9--9-----------9-----9--9----|
----------------------------------------------------|
--6-----6--6--6-----6--6--6-----------6-----6--6----|


--9--8--4-----4g-4--4--4--6-----6--6--8s----11-11---|
--9--9--9-----9g-9--9--9--9-----9--9--9-----9--9----|
----------------------------------------------------|
--6--6--6-----6g-6--6--6--6-----6--6--6-----6--6----|


--11----11-11-11g11-11----11-11----11-11------------|
--9-----9--9--9g-9--9-----9--9-----9--9-----9--9----|
----------------------------------------------------|
--6-----6--6--6g-6--6-----6--6-----6--6-----6--6----|


--8--9--11----11-9--8s-11-11----11-11-11-9--8-------|
--9--9--9-----9--9--9--9--9-----9--9--9--9--9-------|
----------------------------------------------------|
--6--6--6-----6--6--6--6--6-----6--6--6--6--6--6----|

octopusike
08-28-2010, 12:32 AM
--6-----6--6--8s----9--9--9-----9--9--9-----9--9----|
--9-----9--9--9-----9--9--9-----9--9--9-----9--9----|
----------------------------------------------------|
--6-----6--6--6-----6--6--6-----6--6--6-----6--6----|


--9--8--4--4--4--4--4--4--6-----6--6--8-----11-11---|
--9--9--9--9--9--9--9--9--9-----9--9--9-----9--9----|
----------------------------------------------------|
--6--6--6--6--6--6--6--6--6-----6--6--6-----6--6----|


--11----11-11-11-11-11----11-11----9----|
--9-----9--9--9--9--9-----9--9--9--9----|
--------------------------------13------|
--6-----6--6--6--6--6-----6--6--6--6----|


--9--9--9--8--8g-8--8-----8g-8--8--8--8g-8----------|
--9--9--9--9--9g-9--9-----9g-9--9--9--9g-9--9--9----|
--6--6--6--5--5g-5--5-----5g-5--5--5--5g-5----------|
--6--6--6--6--6g-6--6-----6g-6--6--6--6g-6--6--6----|


--4--4--4--4--4g-4--4-----4g-4--4--4--4g-4-----9----|
--9--9--9--9--9g-9--9-----9g-9--9--9--9g-9-----9----|
----------------------------------------------------|
--6--6--6--6--6g-6--6-----6g-6--6--6--6g-6--6--6----|


--9--9--9--8--8g-8--8-----8g-8--8--8--8g-8-----4----|
--9--9--9--9--9g-9--9-----9g-9--9--9--9g-9-----9----|
----------------------------------------------------|
--6--6--6--6--6g-6--6-----6g-6--6--6--6g-6--6--6----|


--4--4--4--6--6g-6--6-----6g-6-----6--6g-6--6s-9----|
--9--9--9--9--9g-9--9-----9g-9-----9--9g-9--9--9----|
----------------------------------------------------|
--6--6--6--6--6g-6--6-----6g-6--6--6--6g-6--6--6----|


--9--9--9--8--8g-8--8-----8g-8--8--8--8g-8----------|
--9--9--9--9--9g-9--9-----9g-9--9--9--9g-9--9--9----|
--6--6--6--5--5g-5--5-----5g-5--5--5--5g-5----------|
--6--6--6--6--6g-6--6-----6g-6--6--6--6g-6--6--6----|


--4--4--4--4--4g-4--4-----4g-4--4--4--4g-4-----9----|
--9--9--9--9--9g-9--9-----9g-9--9--9--9g-9-----9----|
----------------------------------------------------|
--6--6--6--6--6g-6--6-----6g-6--6--6--6g-6--6--6----|


--9--9--9--8--8g-8--8-----8g-8--8--8--8g-8-----4----|
--9--9--9--9--9g-9--9-----9g-9--9--9--9g-9-----9----|
----------------------------------------------------|
--6--6--6--6--6g-6--6-----6g-6--6--6--6g-6--6--6----|


--4--4--4--6--6g-6--6-----6g-6-----6--6g-6--6s-9----|
--9--9--9--9--9g-9--9-----9g-9-----9--9g-9--9--9----|
----------------------------------------------------|
--6--6--6--6--6g-6--6-----6g-6--6--6--6g-6--6--6----|


--9--9--9--8--8g-8--8-----8g-8--8--8--8g-8----------|
--9--9--9--9--9g-9--9-----9g-9--9--9--9g-9--9--9----|
--6--6--6--5--5g-5--5-----5g-5--5--5--5g-5----------|
--6--6--6--6--6g-6--6-----6g-6--6--6--6g-6--6--6----|


--4--4--4--4--4g-4--4-----4--4--4--4--4g-4s-9--9----|
--9--9--9--9--9g-9--9-----9--9--9--9--9g-9--9--9----|
----------------------------------------------------|
--6--6--6--6--6g-6--6-----6--6--6--6--6g-6--6--6----|


--9--9--9--8--8g-8--8-----8g-8--8--8--8g-8----------|
--9--9--9--9--9g-9--9-----9g-9--9--9--9g-9----------|
----------------------------------------------------|
--6--6--6--6--6g-6--6-----6g-6--6--6--6g-6--6-------|


--4--4--4--6--6g-6--6-----6--6-----6--6g-6-----6--6g-6--4--4----|
-----------9--9g-9--9-----9--9-----9--9g-9-----9--9g-9--9--9----|
----------------------------------------------------------------|
--6--6--6--6--6g-6--6-----6--6--6--6--6g-6-----6--6g-6--6--6----|


--8--9--11----11-9--8s-11-11----11-11-11-9--8-------|
--9--9--9-----9--9--9--9--9-----9--9--9--9--9-------|
----------------------------------------------------|
--6--6--6-----6--6--6--6--6-----6--6--6--6--6--6----|


--6-----6--6--8-----9--9--9-----------9-----9--9----|
--9-----9--9--9-----9--9--9-----------9-----9--9----|
----------------------------------------------------|
--6-----6--6--6-----6--6--6-----------6-----6--6----|


--9--8--4-----4g-4--4--4--6-----6--6--8s----11-11---|
--9--9--9-----9g-9--9--9--9-----9--9--9-----9--9----|
----------------------------------------------------|
--6--6--6-----6g-6--6--6--6-----6--6--6-----6--6----|


--11----11-11-11g11-11----11-11----11-11------------|
--9-----9--9--9g-9--9-----9--9-----9--9-----9--9----|
----------------------------------------------------|
--6-----6--6--6g-6--6-----6--6-----6--6-----6--6----|


--8--9--11----11-9--8s-11-11----11-11-11-9--8-------|
--9--9--9-----9--9--9--9--9-----9--9--9--9--9-------|
----------------------------------------------------|
--6--6--6-----6--6--6--6--6-----6--6--6--6--6--6----|


--6-----6--6--8-----9--9--9-----------9-----9--9----|
--9-----9--9--9-----9--9--9-----------9-----9--9----|
----------------------------------------------------|
--6-----6--6--6-----6--6--6-----------6-----6--6----|


--9--8--4-----4g-4--4--4--6-----6--6--8s----11-11---|
--9--9--9-----9g-9--9--9--9-----9--9--9-----9--9----|
----------------------------------------------------|
--6--6--6-----6g-6--6--6--6-----6--6--6-----6--6----|


--11----11-11-11g11-11----11-11----11-11------------|
--9-----9--9--9g-9--9-----9--9-----9--9-----9--9----|
----------------------------------------------------|
--6-----6--6--6g-6--6-----6--6-----6--6-----6--6----|


--8--9--11----11-9--8s-11-11----11-11-11-9--8-------|
--9--9--9-----9--9--9--9--9-----9--9--9--9--9-------|
----------------------------------------------------|
--6--6--6-----6--6--6--6--6-----6--6--6--6--6--6----|


--6-----6--6--8s----9--9--9-----9--9--9-----9--9----|
--9-----9--9--9-----9--9--9-----9--9--9-----9--9----|
----------------------------------------------------|
--6-----6--6--6-----6--6--6-----6--6--6-----6--6----|


--9--8--4-----4-----------6-----6--6--8s----11-11---|
--9--9--9-----9-----------9-----9--9--9-----9--9----|
----------------------------------------------------|
--6--6--6-----6--6--------6-----6--6--6-----6--6----|


--11----11-11-11-11-11----11-11----11-11------------|
--9-----9--9--9--9--9-----9--9-----9--9-------------|
----------------------------------------------------|
--6-----6--6--6--6--6-----6--6-----6--6-----6-------|


--8--------8--8g----8-----8g-8--8--8--8-----8--9----|
--9--------9--9g----9-----9g-9--9--9--9-----9--9----|
--5--------5--5g----5-----5g-5--5--5--5-------------|
--6--------6--6g----6-----6g-6--6--6--6-----6--6----|


--9--------9--9g----9-----9g-9--9--9--9-------------|
--9--------9--9g----9-----9g-9--9--9--9-------------|
----------------------------------------------------|
--6--------6--6g----6-----6g-6--6--6--6-----6-------|


--6--------6--6g----6-----6g-6--6--6--6-------------|
--11-------11-11g---11----11g11-11-11-11------------|
----------------------------------------------------|
--8--------8--8g----8-----8g-8--8--8--8-----6-------|


--9--------9--9g-9--9-----9g-9--9--9--9-------------|
--9--------9--9g-9--9-----9g-9--9--9--9-------------|
----------------------------------------------------|
--6--------6--6g-6--6-----6g-6--6--6--6-----6-------|


--8--------8--8g----8-----8g-8--8--8--8-----8--9----|
--9--------9--9g----9-----9g-9--9--9--9-----9--9----|
--5--------5--5g----5-----5g-5--5--5--5-------------|
--6--------6--6g----6-----6g-6--6--6--6-----6--6----|


--9--------9--9g----9-----9g-9--9--9--9-------------|
--9--------9--9g----9-----9g-9--9--9--9-------------|
----------------------------------------------------|
--6--------6--6g----6-----6g-6--6--6--6-----6-------|


--6--------6--6g----6-----6g-6--6--6--6-------------|
--11-------11-11g---11----11g11-11-11-11------------|
----------------------------------------------------|
--8--------8--8g----8-----8g-8--8--8--8-----6-------|


--9--------9--9g-9--9-----9g-9--9--9--9-----9--9----|
--9--------9--9g-9--9-----9g-9--9--9--9-----9--9----|
----------------------------------------------------|
--6--------6--6g-6--6-----6g-6--6--6--6-----6--6----|


-----------8--8-----8-----8--8--8-----8-----8--9----|
-----------9--9-----9-----9--9--9-----9-----9--9----|
--------------5-----5-----5--5--5-----5-------------|
-----------6--6-----6-----6--6--6-----6-----6--6----|


--9--------9--9g----9-----9g-9--9--9--9-------------|
--9--------9--9g----9-----9g-9--9--9--9-------------|
----------------------------------------------------|
--6--------6--6g----6-----6g-6--6--6--6-----6-------|


--6--------6--6g----6-----6g-6--6-----6-------------|
--11-------11-11g---11----11g11-11----11------------|
----------------------------------------------------|
--8--------8--8g----8-----8g-8--8-----8-----6-------|


--9--------9--9-----9-----9g-9--------9-------------|
--9--------9--9-----9-----9g-9--------9-------------|
----------------------------------------------------|
--6--------6--6-----6-----6g-6--------6-----6-------|


--8--------8--8g----8-----8g-8--8--8--8--------9----|
--9--------9--9g----9-----9g-9--9--9--9-----9--9----|
--5--------5--5g----5-----5g-5--5--5--5-------------|
--6--------6--6g----6-----6g-6--6--6--6-----6--6----|


--9-----9--9--9g-9--9-----9--9-----9--9-----9-------|
--9-----9--9--9g-9--9-----9--9-----9--9-----9-------|
----------------------------------------------------|
--6-----6--6--6g-6--6-----6--6-----6--6-----6--6----|


--4-----4--4--4g-4--4-----4--4-----4--4-----4--4----|
--9-----9--9--9g-9--9-----9--9-----9--9-----9-------|
----------------------------------------------------|
--6-----6--6--6g-6--6-----6--6-----6--6-----6--6----|


--4-----4--9--9g-9--9-----9--9-----9----|
-----------9--9g-9--9-----9--9-----9----|
----------------------------------------|
--6-----6--6--6g-6--6-----6--6-----6----|


--9--9--9--8--8-------------------------|-------------||
--9--9--9--9--9-------------------------|-------------||
--6--6--6--5--5-------------------------|-------------||
--6--6--6--6--6-------------------------|-------------||

Kanaka916
08-28-2010, 04:08 AM
The tab is based on whoever writes it because it's the key he would be playing/singing it. Very few people will try and tab the original song. The problem is trying to emulate the original whether singing or playing just ain't gonna happen. Transposing is the easiest way to adapt a song to suit your needs, instrumentally or vocally. Basically, make the song your own . . . just my dos centavos.

octopusike
08-28-2010, 06:59 AM
I think I'm on the same page as you. The tabs I post aren't necessarily the tabs that I use for myself as well. I merely want to provide a good starting point for the user and try and let them figure whats best for them. I was in a what blessed with a good range in my voice... not that I am wanting to show it off to anyone at the current time as that is pretty much the only area I am shy with. When thought goes into the tabs it's based on the original song, but also the range the song itself is in as if I change the tone one way or another several key notes to the song just vanish. I try and make a great balanced tab. A certain song I play I was able to have my gf roommate recognize a few rooms away right off the bat and came running in to hear it. I aim to get that wow factor as best as possible. So pretty much I won't post a tab until it meets my standards. Make no mistake that my tabs are not the original songs, just as close as I myself can get the song to sound like the original. If I have to play a mad scientist then I want the users to also play mad scientist as that's what makes this fun. If anyone would like me to make a song higher or lower to fit their vocal range I am more then happy to help.