PDA

View Full Version : Pualena _ Please!!!



tuumalo
08-17-2008, 09:44 PM
Can Somebody Pls Make A Tutorial Or Post The Chords Up For The Song Pualena By Vika!! Please It Seems As If Nobody Has Anything Online For This Song. Let Me Know Asap Please..thanks Everyone!

Tuumalo

experimentjon
08-17-2008, 10:18 PM
I think these are from TSH. I had them on my comp from before. Good luck learning it, and I hope this helps you.


Pualena with Tab Chords Lyrics

Composed By: ?
Performed By: Vika
Submitted By: Christian Legaspi <Pimptian@hotmail.com>


Chords:

F#m Bm C#7 G E7 A F# *Legend*

E-> 2 2 4 3 0 0 2 hammer-on
B-> 2 3 6 3 0 1 2 & ^
G-> 2 4 4 4 1 1 3 pull-off
D-> 4 4 6 5 0 1 4
A-> 4 2 4 5 2 0 4 slide /
E-> 2 2 4 3 0 0 2 vibrato ~


Intro: (Key of A)

A Fmaj7 A Fmaj7 A Fmaj7 A A7

E---------------------------------0---------------------------------------]
B-2-------0---0^2------2-------0--0-----2-------0---0^2------2----2-2-----]
G------2--2---2---2---------2--2-------------2--2---2---2---------2-0-----]
D----2----3---3----3------2----3-----------2----3---3----3------2---2-----]
A-0-----------0--------0----------------0-----------0--------0------0-----]
E------------------------------------0------------------------------------]
{rake {rake
down/ down/
hammer-on} hammer-on}


Fill #1: (Key of D) Played at -> Verse 1 "so much more...."
Verse 2 "I'll keep you warm..."
D

"more..."
"warm..."
E---5----5^7^5----------]
B---7----------5^7^5----]
G---7-------------------]
D---7-------------------]
A---5-------------------]
E---5-------------------]
{rake {hammer-on/
down} pull-off}


Verse 1:
F#m Bm F#m
Island baby you're so beautiful, you drive me crazy
C#7 D (Fill#1)
you know you're all that I need, so much more
Bm F#m
your strength and beauty, I can see in your eyes
C#7 F#m Bm
I lose sight of my world, baby love
F#m
no words can hold what's truly on my mind
C#7 F#m
just feel the beat of my heart
G E7
and you'll know what I mean



Chorus:
Bm E7
You're my, Pualena, you're so beautiful
A F#
God knows, I love you, you're all I need
Bm E7 F#m Bm E7
Pualena, you take my breath away, Pualena



Verse 2:
F#m Bm F#m
You know lately, all I think about is holding you close to me
C#7 D (Fill#1)
and never leaving your side, I’ll keep you warm
Bm F#m
time passes by and still you're on my mind
C#7 F#m
I can't imagine living my life without you girl
Bm F#m
the special moments, you and I can only share
C#7 F#m G E7
will always keep us together, and never apart


*Go to chorus*


Guitar Solo: (Synchronized with chorus)

Bm E7 A F# Bm E7

E-------------------------------------------------------5/7/5----7----9----
B----5-5/7--------5-3-2--5-7-7/9------------------------5/7/5--------------
G--4----------4------------------9-----------------------------6/7--7/9----
D----------------------------------11~~--6-8-9-11-9-8----------------------
A--------------------------------------------------------------------------
E--------------------------------------------------------------------------

F#m Bm E7

E-----5-4-2------------------------------]
B-------------------5-5^7----------------]
G-4/6---4-2--2^4-4/6-------4^6--4~~~~----]
D----------------------------------------]
A----------------------------------------]
E----------------------------------------]


Verse:
Bm F#m
time passes by and still you're on my mind
C#7 F#m
I can't imagine living my life without you girl
Bm F#m
the special moments, you and I can only share
C#7 F#m G E7
will always keep us together, and never apart



*Go to chorus*
*Repeat*



Fill#2: Outro (Last chord of song)

F#m

E--2----4--2~~~----]
B--2----2--2~~~----]
G--2----2--2~~~----]
D--4----2--2~~~----]
A--4----4--4~~~----]
E--2----2--2~~~----]
{rake
down}

FHS-72
08-18-2008, 06:49 AM
i just saw it on tropicalstormhawaii.com:nana: