PDA

View Full Version : Anyone have a good bollywood jam for uke?



ukunuke
08-06-2011, 06:37 PM
I can't think of a better mix than uke and bollywood for some street fun. Has anyone here dared to master the genre? Videos anyone?

Trinimon
08-06-2011, 07:19 PM
Would be cool if someone could make a uke version of this classic track.

http://youtu.be/YV5MJ5i84ns

Found a guitar tab tutorial on playing this if someone can translate it to GCEA. :P

http://youtu.be/AtocINGNMVI

e|-----------------------------------
B|-0--1--0--------0------------------
G|----------2--0---------------------
D|-----------------------------------
A|-----------------------------------
E|-----------------------------------
Tum pas aye
Yu muskuraye

e|-----------------------------------
B|----0------------------------------
G|-2-----2--0-----2------------------
D|-------------4-----0---------------
A|-----------------------------------
E|-----------------------------------
Tumne najane kya

e|-----------------------------------
B|---------0-------------------------
G|-2---0-------2---0---0-------------
D|-----------------------------------
A|-----------------------------------
E|-----------------------------------
Sapne ***hye

e|-------------0---------------------
B|----------0-----3------------------
G|-0--0--2---------------------------
D|-----------------------------------
A|-----------------------------------
E|-----------------------------------
Aab to mera dil

e|-------------0-0-------------------
B|----------0-------3----------------
G|-0--0--2---------------------------
D|-----------------------------------
A|-----------------------------------
E|-----------------------------------
Jage na sota hai

e|-----------------------------------
B|----0------------------------------
G|-2-----2--0------------------------
D|-------------4--2--2--0------------
A|-----------------------------------
E|-----------------------------------
Kya karu haaai

e|-----------------------------------
B|-------0---------------------------
G|-2--0-----2--0--0--0---------------
D|-----------------------------------
A|-----------------------------------
E|-----------------------------------
Kuch kuch hota hai

e|-----------0-----------------------
B|-0--1--3-3---3--1-0-------0--1--3--
G|--------------------2--2-----------
D|-----------------------------------
A|-----------------------------------
E|-----------------------------------
Najae kaisa ahesas hai

e|-----------0-----------------------
B|-0--1--3-3---3--1-0-------0--1--3--
G|--------------------2--2-----------
D|-----------------------------------
A|-----------------------------------
E|-----------------------------------
Bujhti nahi hai..kya pyas hai

e|-----------------------------------
B|----0------------------------------
G|-2-----2--0-0-----2----------------
D|---------------4-----0-------------
A|-----------------------------------
E|-----------------------------------
Kya nasha is pyar ka

e|-----------------------------------
B|-----------------------------------
G|-0-0-----------------2-----0-------
D|-----2--0-2-0-----0-----4----------
A|--------------3--------------------
E|-----------------------------------
Mujh pe sanam.....chaane lagaaa.

From ultimateguitar.com: http://tabs.ultimate-guitar.com/m/misc_soundtrack/kuch_kuch_hota_hai_theme_crd.htm

TCK
08-06-2011, 08:59 PM
No, but you are now my favorite poster ever for asking

hoosierhiver
08-07-2011, 04:03 AM
Funny thing, I just watched this yesterday.
http://www.youtube.com/watch?v=-bAN7Ts0xBo

wolfybau
08-07-2011, 05:05 AM
that is funny

how bout this one? http://www.youtube.com/watch?v=mxTvismqQuc

hoosierhiver
08-07-2011, 05:25 AM
This one cracks me up.
http://www.youtube.com/watch?v=fo_4gkWODy0