PDA

View Full Version : shave and a hair cit



NoahOathKeeper
10-08-2011, 07:47 PM
ive searched this site and around the web and cant find this ending for uke, im using GCEA on a soprano uke could someone post up this ending for Ukulele , maybe a fairly simple version,, thank you

janeray1940
10-08-2011, 08:14 PM
In the key of C it would be C-G-G-A-G-B-C:

--3---------0------2--3--
-----3--3------3----------
----------------------------
----------------------------

Ukulele JJ
10-09-2011, 03:11 AM
In the key of C it would be C-G-G-A-G-B-C:

--3---------0------2--3--
-----3--3------3----------
----------------------------
----------------------------

Which, on a high-G uke, could also be played as:


--3---------0----------2--3--
-----------------------------
-----------------------------
-----0--0------0-------------

JJ

Ambient Doughnut
10-09-2011, 03:30 AM
Give it a bit more flair with a G7/C at the end:



--3---------0----------2--3--
-----3--3------3-------1--0--
-----------------------2--0--
-----------------------0--0--


:)

NoahOathKeeper
10-09-2011, 06:53 AM
thanks all ,i hit that end lick a lot on the banjo, im new to ukulele , but im enjoying it a lot

Ukulele JJ
10-09-2011, 09:37 AM
Give it a bit more flair with a G7/C at the end:



--3---------0----------2--3--
-----3--3------3-------1--0--
-----------------------2--0--
-----------------------0--0--


I like it! You could also do a B/C barre chord slide thingy at the end too:


-----2--3--
-----2--3--
-----3--4--
-----4--5--

JJ