PDA

View Full Version : time after time and hula girl



CenizaT&K-01
12-04-2007, 06:38 AM
Guys,

I have been trying to learn Time After Time and Hula Girl by Jake Shimabukuro. I have the basics down on both songs, but i am having problems figuring it out totally. if anyone can help me on these two songs that would greatly appreciated. I understand if you can't though.

al

l0calb0y91
12-17-2007, 12:44 PM
hey, i think i have the intro down for time after time...its based off jake's solo version on youtube.. i can send it to you over email and whoever else is interested..

CenizaT&K-01
12-17-2007, 02:33 PM
thanks, i just messaged you. if there is anyone else that can help with this it would be greatly appreciated. this is what i have so far i guess. nothing great i think its just the basics.

Time after Time:

5-3-3-3-3-5-3-3-3-3-5-3-3-3-3-5-7-7-5-3-3-3-3-5-
---------------------------------------------------
---------------------------------------------------
---------------------------------------------------

3-3-3-3-5-3-3-3-3-5-7-7-3-5-2-2-2-3-3-3-3-2---3-
-----------------------------------------------3---
---------------------------------------------------
---------------------------------------------------

5-2-2-2-3-3-3-3-2-3S5-3-3-3-3-5-3-3-3-3-5-3-3-3-
---------------------------------------------------
---------------------------------------------------
---------------------------------------------------

3-5-7-7-5-3-3-3-3-5-3-3-3-3-5-3-3-3-3-5-7-7-3-5-
---------------------------------------------------
---------------------------------------------------
---------------------------------------------------

2-2-2-3-3-3-3-2---3-3-3-2---0-0-10-10-10-7-10-10
-----------------3---------3-----------------------
---------------------------------------------------
---------------------------------------------------

7-10-10-12-7-7-7-7-5-7-10-10-10-7-10-10-7-10-10
---------------------------------------------------
---------------------------------------------------
---------------------------------------------------

12-7-7-7-7-5-7-10-10-10-7-10-10-7-10-10-???????
---------------------------------------------------
---------------------------------------------------
---------------------------------------------------

l0calb0y91
12-17-2007, 03:16 PM
well i have a little different version.. the one you have is in the key of C and thats what Jake plays with his brother. theres one video on youtube of just jake solo and plays the tune in the key of F. thats the version I have on the intro..i have to scan it into the comp. so ill get it to you soon.

dmassop
04-10-2008, 05:34 PM
hey thanks a lot man, i've been looking for this, and thats def more than just a start, so thanks. you dont know what those guitar chords happen to be do you? i'll let you know if i figure any more out.... (doubt it :rolleyes:)

tsudawuda
04-10-2008, 08:36 PM
ill post this up. unfortunately im gonna have to put it in sections due to my pc being repaired and im using my psp.

Tropic Ukes
04-11-2008, 04:32 PM
What about the Jon Prown version. Dom, how about that tab?

econosaurus
12-17-2010, 02:20 PM
Any chance you could send me the tabs as well?

Dominator
12-17-2010, 07:18 PM
Tabs for a solo version (key of F) are posted on my site under Cyndi Lauper.