PDA

View Full Version : Some sweet riffs



UkuLeLesReggAe
10-21-2008, 09:27 PM
hey, dont have long so i didn't serach the thread for long.

i have a guitar but have hardly played it so i suck, ofcourse :D

what are some cool little riffs? i dun even know what riffs are. like cool, easy things to play... i guess like somewhere over the rainbow on uke.



uhh... basically... something easy but sounds really cool to play

aldrine encouraged me to pik up a guitar from his new some, space suits. great song and it sounds awesome

UkEdman90
10-22-2008, 12:10 PM
SAME WITH ME! um heres a few

Skyline drive: from ultimate guitar made into 1 guitar
x4
e|---7---6--/9---7---4---2---2---2-----6---2-----------6---2-------------
B|---------------------------------------4-----4-5/7-----4----4-5/7-------
G|---8-8-------------4-4--------------------------------------------------
D|-------------------------------------------------------------------------
A|-------------------------------------------------------------------------
E|-------------------------------------------------------------------------

e|---2-------2-------2-------2-------0-------0-------0-------0------------|
B|-----0---0---0---0---0---0---0---0---4---4---4---4---4---4---4----------|
G|-------3-------3-------3-------3-------4-------4-------4-------4--------|
D|------------------------------------------------------------------------|
A|------------------------------------------------------------------------|
E|------------------------------------------------------------------------|

e|-------7-------7-------7-------7---0-------0-------0-------0-------0----|
B|-------------------------------------4---4---4---4---4---4---4---4---4--|
G|---8-9---9-8-9---9-8-9---9-8-9---------4-------4-------4-------4-------4|
D|------------------------------------------------------------------------|
A|------------------------------------------------------------------------|
E|------------------------------------------------------------------------|

Feeling alright rebelution: http://www.911tabs.com/link/?4730484
e---------------------------------0h2p0---------2---5---3-----|
b--------------------------------------3--0-----3---3---3-----|
g----------------4--5----4-----------------2------------------|
d-----------5--7--------------0------------0------------------|
a-------------------0-----------------------------------------|
E----0~------------------3------------------------------------|

e-------------------------------------------------------------|
b-------------------------------------------------------------|
g---------4--5---4--------2-0--0-0----------------------------|
d----5--7-0----------0----0-0--4-0-------4--4h5p4h5-5---------|
a------------0---------------------2~-------------------------|
E----0~----------3--------------------------------------------|

UkuLeLesReggAe
10-23-2008, 01:34 AM
alright sweet thank man. ill get the song, assuming they are songs... so i can listen to the rhythm (SP)

mahalozzzz

bof
11-16-2008, 11:18 AM
One easy riff

Seven Nation Army - The White Stripes
E|--------------------------
B|--------------------------
G|--------------------------
D|--------------------------
A|-7--7--/10--7--5--3--2----
E|--------------------------

and before the chorus you do:

E|------------------------------------
B|------------------------------------
G|------------------------------------
D|-5-5-5-5-5-5-5-5-7-7-7-7-7-7-7-7----
A|-5-5-5-5-5-5-5-5-7-7-7-7-7-7-7-7----
E|-3-3-3-3-3-3-3-3-5-5-5-5-5-5-5-5----


and the chorus goes:
E|--------------------------
B|--------------------------
G|-9--9--/12--9--7--5--4----
D|-9--9--/12--9--7--5--4----
A|-7--7--/10--7--5--3--2----
E|--------------------------

E|-----------------------------
B|-----------------------------
G|-9--9--/12--9--7--5-7-5-4----
D|-9--9--/12--9--7--5-7-5-4----
A|-7--7--/10--7--5--3-5-3-2----
E|-----------------------------


and then you got the song. Copied that from chordie, cause im too lazy to write it down myself