PDA

View Full Version : T˙ y Yo



uke4ia
08-25-2012, 10:59 AM
http://www.youtube.com/watch?v=cBqRPj_yttY

This is a song by the Mexican pop singer Ximena Sari˝ana. She put out a very good album last year that was her first English language album. This was the one song in Spanish on the album.




Intro/Bridge/Ending

(on these chords, play the E and A strings with your index finger while you brush the C and G strings with the side of your thumb)

Bbmaj7 C7 C6 F

A |-----0-1------5---5---5---3----3---3---------0-1-
E |-1-3--------5---5---5---3----3---3---1---1-3-----
C |------------5-5-5-5-5-5-4-4--0-0-0-0-0-0---------
G |------------3-3-3-3-3-3-3-3--2-2-2-2-2-----------


Bbmaj7 C7 C6 F

A |-----0-1------5---5---5---3----3---3-------------
E |-1-3--------5---5---5---3----3---3---1---1-------
C |------------5-5-5-5-5-5-4-4--0-0-0-0-0-0-0-0-----
G |------------3-3-3-3-3-3-3-3--2-2-2-2-2---2-------


Verse

Bbmaj7 C7 C6 F Bbmaj7 C7 C6 F

A |--5---5---5---3----3---3---3---3-----5---5---5---3----3---3---3---3---
E |--5-5-5-5-5-5-3-3--3-3-3-3-3-3-1-1---5-5-5-5-5-5-3-3--3-3-3-3-3-3-1-1-
C |--5---5---5---4----0---0---0---0-----5---5---5---4----0---0---0---0---
G |--3---3---3---3----2---2---2---2-----3---3---3---3----2---2---2---2---

Dm G Dm G

A |-0---0---0---0---2---2---2---2----0---0---0---0---2---2---2---2---
E |-1-1-1-1-1-1-1-1-3-3-3-3-3-3-3-3--1-1-1-1-1-1-1-1-3-3-3-3-3-3-3-3-
C |-2---2---2---2---2---2---2---2----2---2---2---2---2---2---2---2---
G |-2---2---2---2---0---0---0---0----2---2---2---2---0---0---0---0---


Chorus

Eb Dm Eb Dm

A |--6---6---6---6---5---5---5---5---6---6---6---6---5---5---5---5---
E |--3---3---3---3---5---5---5---5---3---3---3---3---5---5---5---5---
C |--3---3---3---3---5---5---5---5---3---3---3---3---5---5---5---5---
G |--3---3---3---3---7---7---7---7---3---3---3---3---7---7---7---7---

G9 Dm G

A |--5---5---5---5---5---5---5---5---2---2---2---2---2---2---2---2---
E |--5---5---5---5---5---5---5---5---3---3---3---3---3---3---3---3---
C |--5---5---5---5---5---5---5---5---2---2---2---2---2---2---2---2---
G |--4---4---4---4---7---7---7---7---0---0---0---0---0---0---0---0---