PDA

View Full Version : finger picking undercover lover



AnthonyUkulele
02-18-2008, 08:21 AM
tabs for this song....if you dont know the song its undercover lover by 3 plus

http://youtube.com/watch?v=0YsH3e8qN9s

experimentjon
02-18-2008, 10:02 AM
I found this on Tropical Storm Hawaii, and it sounds pretty good.


Undercover Lover Real one

Composed By: Shawn Kekoa Pimental
Performed By: Three Plus
Submitted By: Hawaiian John <SundayManoa187@aim.com>


(Beginning)

A-2--3-2---------------2--3-2---5---------2--3-2------
E-3------3-------------3-----3------------3------3----
C-4--------2-----------4------------------4--------2--
G-----------------------------------------------------

A-2--3-2----5---3---2------3-2-------0---
E-3------3---------------------3--------3
C-4-------2---2---2----1/2--------2------
G----------------------------------------

----------------------------------------------------------------------------

(Middle)

A----------------------------2-3-2--2-3-2-5-3-2-0h2-3-2-------5----3--------
E---3-3-3/5----5-7-3---------3-----3-------------------3---------------4-3-2-
C-2----------2-------0h1/2-0-4----------------------------1/2----2---2------
G----------------------------------------------------------------------------

YuKoLayLay
06-04-2008, 03:19 AM
wow thanks for the tabs XD. Haha im gonan learn it before you AJ! IN YO FACE

cookoob0i
06-23-2008, 06:09 PM
how do you play in the middle parts or the lead portions as this guy says it. http://www.youtube.com/watch?v=NhItRf2UVqM

ukunubu
07-06-2009, 08:59 PM
yes can someone provide the tabs for that video??