PDA

View Full Version : Tower of Power/Funk Chords



Mangi
02-18-2008, 02:32 PM
Hi iv been looking for tabs for down to the night club by tower of power and iv also been looking for funk ukulele chords and tabs. Does anyone know where i can find these chords or tabs?

octopusike
08-24-2010, 11:23 AM
I used to play bass so I have converted over the bass tabs to this song. I am not very big into funk, but some of the popular tab and chord sites have plenty of funk songs that are chorded out to get you rolling.


A |-------|--1--1--8--13---------------|--------5-----6--6--8-------|
E |-------|----------------------------|----------------------------|
C |-------|----------------------------|----------------------------|
G |-------|----------------------------|----------------------------|


--------8--13---------------|--6--6--------------0-------|
--6--6----------------------|----------------------------|
----------------------------|----------------------------|
----------------------------|--------0-----1--1----------|


--1--1--8--13---------------|--------5-----6--6--8-------|
----------------------------|----------------------------|
----------------------------|----------------------------|
----------------------------|----------------------------|


--------8--13---------------|--6--6--------------0-------|
--6--6----------------------|----------------------------|
----------------------------|----------------------------|
----------------------------|--------0-----1--1----------|


--1--1--8--13---------------|--------5-----6--6--8-------|
----------------------------|----------------------------|
----------------------------|----------------------------|
----------------------------|----------------------------|


--------8--13----13---------|--6--6--------------0s-2----|
--6--6----------------------|----------------------------|
----------------------------|----------------------------|
----------------------------|--------0-----1--1----------|


--3--3--10-15---------------|--3--7-----3--7--7--10-15---|
----------------------------|----------------------------|
----------------------------|----------------------------|
----------------------------|----------------------------|


----------------------------|-------|--1-----1--------3----------|
--16-------17L17-17-18------|-------|----------------------------|
----------------------------|-------|----------------------------|
----------------------------|-------|----------------------------|


--8-----8--------------6----|-----6--6--6-----x--4-------|
----------------------------|----------------------------|
----------------------------|----------------------------|
----------------------------|----------------------------|


-----6--6--------------0----|--1-----1--------6----------|
----------------------------|----------------------------|
----------------------------|----------------------------|
--------------0--0--1-------|----------------------------|


--8-----8--15----8--8--13---|-----------0L-0--0--1-------|-------|
----------------------------|----------------------------|-------|
----------------------------|--8-------------------------|-------|
----------------------------|----------------------------|-------|


--1--1--8--13---------------|--------5-----6--6--8-------|
----------------------------|----------------------------|
----------------------------|----------------------------|
----------------------------|----------------------------|


--------8--13----13---------|--6--6--------------0s-2----|
--6--6----------------------|----------------------------|
----------------------------|----------------------------|
----------------------------|--------0-----1--1----------|


--3--3--10-15---------------|--3--7-----3--7--7--10-15---|
----------------------------|----------------------------|
----------------------------|----------------------------|
----------------------------|----------------------------|


----------------------------|-------|--1-----1--------3----------|
--16-------17L17-17-18------|-------|----------------------------|
----------------------------|-------|----------------------------|
----------------------------|-------|----------------------------|


--8-----8--------------6----|-----6--6--6-----x--4-------|
----------------------------|----------------------------|
----------------------------|----------------------------|
----------------------------|----------------------------|


-----6--6--------------0----|--1-----1--------6----------|
----------------------------|----------------------------|
----------------------------|----------------------------|
--------------0--0--1-------|----------------------------|


--8-----8--15----8--8--13---|-----------0L-0--0--1-------|-------|-------|
----------------------------|----------------------------|-------|-------|
----------------------------|--8-------------------------|-------|-------|
----------------------------|----------------------------|-------|-------|


--6-----18------------------|-----13----6-----1--4-------|
----------------------------|----------------------------|
--------------19-19-20-21---|----------------------------|
----------------------------|----------------------------|


--6-----18------------------|-----13----6-----1--4-------|
----------------------------|----------------------------|
--------------19-19-20-21---|----------------------------|
----------------------------|----------------------------|


--6-----18------------------|-----13----6-----1--4-------|
----------------------------|----------------------------|
--------------19-19-20-21---|----------------------------|
----------------------------|----------------------------|


--6-----18------------------|-----13----6-----1--4-------|
----------------------------|----------------------------|
--------------19-19-20-21---|----------------------------|
----------------------------|----------------------------|


--6-----18------------------|-----13----6-----1--4-------|
----------------------------|----------------------------|
--------------19-19-20-21---|----------------------------|
----------------------------|----------------------------|


--6-----18------------------|-----13----6-----1--6s-8----|
----------------------------|----------------------------|
--------------19-19-20-21---|----------------------------|
----------------------------|----------------------------|


--8--8--0-----1--1--3--6----|-----7-----8-----1--6--8----|
----------------------------|----------------------------|
----------------------------|----------------------------|
----------------------------|----------------------------|


--8--8--8--------7--8--18---|-----19----20----3--6-------|
----------------------------|----------------------------|
----------------------------|----------------------------|
-----------8--8-------------|----------------------------|

octopusike
08-24-2010, 11:24 AM
--8--8--0-----1--1--3--6----|-----7-----8-----1--6--8----|
----------------------------|----------------------------|
----------------------------|----------------------------|
----------------------------|----------------------------|


--8--8--8--------7--8--18---|-----19----20----15---------|-------|
----------------------------|--------------------13------|-------|
----------------------------|----------------------------|-------|
-----------8--8-------------|----------------------------|-------|


-----------------4----------|--------8--13---------------|
----------------------------|----------------------------|
----------------------------|----------------------------|
----------------------------|--3--3----------------------|


--------5-----6--6--8-------|--------8--13----13---------|
----------------------------|--6--6----------------------|
----------------------------|----------------------------|
----------------------------|----------------------------|


--6--6--------------0s-2----|--3--3--10-15---------------|
----------------------------|----------------------------|
----------------------------|----------------------------|
--------0-----1--1----------|----------------------------|


--3--7-----3--7--7--10-15---|----------------------------|-------|
----------------------------|--16-------17L17-17-18------|-------|
----------------------------|----------------------------|-------|
----------------------------|----------------------------|-------|


--1-----1--------3----------|--8-----8--------------6----|
----------------------------|----------------------------|
----------------------------|----------------------------|
----------------------------|----------------------------|


-----6--6--6-----x--4-------|-----6--6--------------0----|
----------------------------|----------------------------|
----------------------------|----------------------------|
----------------------------|--------------0--0--1-------|


--1-----1--------6----------|--8-----8--15----8--8--13---|
----------------------------|----------------------------|
----------------------------|----------------------------|
----------------------------|----------------------------|


-----------0L-0--0--1-------|-------|--1-----1-------------------|
----------------------------|-------|-----------------------2L---|
--8-------------------------|-------|----------------------------|
----------------------------|-------|-----------------1----------|


--------------4--4----------|-----------0L-0-----1-------|-------|
--2-----2-----------2s------|-----------------x----------|-------|
----------------------------|----------------------------|-------|
-----------------------0----|--1-------------------------|-------|


--1-----1-------------------|--------------4--4----------|
-----------------------2L---|--2-----2-----------2s------|
----------------------------|----------------------------|
-----------------1----------|-----------------------0----|


-----------0L-0-----1-------|-------|--1-----1-----5--6-----9L---|
-----------------x----------|-------|----------------------------|
----------------------------|-------|----------------------------|
--1-------------------------|-------|----------------------------|


--9-----9.-------------9----|--11-------12L12-13-13-13---|
----------------------------|----------------------------|
----------------------------|----------------------------|
--------------9--9--9-------|----------------------------|


----------------------------|----------------------------|
--13-13-11-11-11-11-9-------|----------------------------|
----------------------------|--10----10----8--8--8--6L---|
----------------------------|----------------------------|


----------------------------|-----------0L-0-----1.------|
--------------0--0--2--0----|----------------------------|
--6-----6-------------------|----------------------------|
----------------------------|--1-------------------------|


--5--5--5-----6--6--7--8----|--------5-----6--6-----9L---|
----------------------------|--6-------------------------|
----------------------------|----------------------------|
----------------------------|----------------------------|


--9-----9.-------------9----|--11-------12L12-13-13-13---|
----------------------------|----------------------------|
----------------------------|----------------------------|
--------------9--9--9-------|----------------------------|


----------------------------|----------------------------|
--13-13-11-11-11-11-9-------|----------------------------|
----------------------------|--10----10----8--8--8--6L---|
----------------------------|----------------------------|


----------------------------|-----------0L-0-----1.------|
--------------0--0--2--0----|----------------------------|
--6-----6-------------------|----------------------------|
----------------------------|--1-------------------------|


-----5--5-----6--6--7--8----|--------5-----6--6-----9L---|
----------------------------|--6-------------------------|
----------------------------|----------------------------|
----------------------------|----------------------------|


--9-----9.-------------9----|--11-------12L12----13-13---|
----------------------------|----------------------------|
----------------------------|----------------------------|
--------------9--9--9-------|----------------------------|


-----------13---------------|----------------------------|
--13-13-11----11-11-9-------|----------------------------|
----------------------------|--10----10----8--8--8--6L---|
----------------------------|----------------------------|


----------------------------|-----------0L-0-----1.------|
--------------0--0--2--0----|----------------------------|
--6-----6-------------------|----------------------------|
----------------------------|--1-------------------------|


--5--5--5-----6--6--7--8----|--------5-----6--6-----9L---|
----------------------------|--6-------------------------|
----------------------------|----------------------------|
----------------------------|----------------------------|


--9-----9.-------------9----|--11----11-12L12-13-13------|
----------------------------|----------------------------|
----------------------------|----------------------------|
--------------9--9--9-------|----------------------------|


----------------------------|----------------------------|
--13-13-11----11-11-9-------|----------------------------|
----------------------------|--10----10----8--8--8--6L---|
----------------------------|----------------------------|


----------------------------|-----------0L-0-----1.------|-------|-------|
--------------0--0--2--0----|----------------------------|-------|-------|
--6-----6-------------------|----------------------------|-------|-------|
----------------------------|--1-------------------------|-------|-------|


-------|-----------0L-0-----1.------||
-------|----------------------------||
-------|----------------------------||
-------|--1-------------------------||