PDA

View Full Version : Aldrine's New Vid.



Howlie Boy
02-21-2008, 09:25 PM
Man i cant wait for this instructional video.....:D

http://www.youtube.com/watch?v=5yTXAlVBxCw

Link
02-21-2008, 10:27 PM
He is so incredibly skilled.

Orlando
02-22-2008, 04:39 AM
awesome as always.

david98116
02-22-2008, 05:02 AM
Man Aldrine can move around that fretboard! Here I am still buzzing chords. Oh well, time to pick this thing up and practice until my fingers blister :D.

UkuLeLesReggAe
02-22-2008, 09:11 PM
it reminds me of spain for some reason, tetris is that block game isnt it??

Howlie Boy
02-22-2008, 10:00 PM
it reminds me of spain for some reason, tetris is that block game isnt it??

Yup, you should check out human tetris on youtube its halarious...

Howlie Boy:cool:

Bigylittle
02-22-2008, 11:25 PM
it reminds me of spain for some reason, tetris is that block game isnt it??

For some reason I thought Spain as well o.o

Ikaru
02-22-2008, 11:32 PM
Man i cant wait for this instructional video.....:D

http://www.youtube.com/watch?v=5yTXAlVBxCw

When I started playing the ukulele a friend of mine tabed me the tetris melody. Its quit easy, I will make a video on Sunday maybe with a little lesson or I will post the tabs for it in the tab section.

davoomac
02-23-2008, 01:33 AM
This is a great little tune to add to your ukulele repertoire! The way Aldrine does it is great, but tricky. I think this will help a little bit. Feedback is appreciated because it probably will have to be revised.. :) Hopefully this will help you out in anticipation for the actual video tutorial.

Chords for this song: Gm and D(7) and Cmin7

Chord shapes:
Gm: 1320, 567x, and (10 10 10 X) spaced because of double digits
D: 0222, and (9 10 9 X)
Cmin7: 3333

I will do a simplified TAB for it:



[B]Tetris Simplified (Davoo's tab based off Aldrine's video)

Part 1:

A|--5---0---1---3---1---0--------------1--5--3--1--0---0---1---3---5--------|
E|--3------------------------3----3--------------------2--------------------|
C|--2--------------------------------------------------2--------------------|
G|-----------------------------------------------------2--------------------|
Gm D

A|---1----------------------------------------------------------------------|
E|---3---3---3--------------------------------------------------------------|
C|---2----------------------------------------------------------------------|
G|--------------------------------------------------------------------------|
Gm

Part 2:
A|---3---6---6/10--8--6----5---1---5---3--1--2--0--1--3---5-----------------|
E|---3---------------------3-----------------2------------------------------|
C|---3---------------------2-----------------2------------------------------|
G|---3---------------------------------------2------------------------------|
Cmin7 Gm
A|---1----------------------------------------------------------------------|
E|---3---3---3--------------------------------------------------------------|
C|---2----------------------------------------------------------------------|
G|--------------------------------------------------------------------------|
Gm

Part 3:

A|---5------1--------3-------0-------------5---- 10-----9----------10~-----|
E|---3---------------2-----------------6----------------10---------10~-----|
C|---2---------------2-------------7--------------------9----------10~-----|
G|-------------------2-----------------------------------------------------|
Gm D7 Gm D Gm

**Note, I put the basic chord shapes and the melody.
it's up to you to put all those nifty fillers and extra notes.
An easy way to do this is to hold the basic shape with your fretting hand and
pick the other notes in the chord while still keeping the melody going.
You can fill the phrase with notes from each chord until you see the chord change.
I hope that isn't confusing.
It gets easier the more times you play the melody.
(Repeat each part the appropriate amount of times)

Ikaru
02-23-2008, 03:12 AM
@davoomac:
thats a great version too. I think u missed a note (d) at the 2 Part here:

Part 2:
--0--0--1--3--5------------------|
--2------------------------------|
--2------------------------------|
--2------------------------------|

The version of my friend is:
A,Dm and Gm

davoomac
02-23-2008, 03:20 AM
@davoomac:
thats a great version too. I think u missed a note (d) at the 2 Part here:

Part 2:
--0--0--1--3--5------------------|
--2------------------------------|
--2------------------------------|
--2------------------------------|

The version of my friend is:
A,Dm and Gm

thanks for pointing that one out!

Fred Miu
02-23-2008, 03:34 AM
thanks for pointing that one out!

i fixed it for you :D

davoomac
02-23-2008, 04:11 AM
The version of my friend is:
A,Dm and Gm

Tetris Brick Theme Tab in different key :)
tabbed by Davoo

You can also play the brick theme in another key. Here are the chords
Dm: 0122, 555x
A: 0012, 4540
Gm: 1320


Part 1:

A|-----0--------------------------0-----------0-------------0--0-----------|
E|-----1--0--1--3--1--0--------1------3--1----0---0--1--3------1-----------|
C|-----2-----------------2--2-----------------1----------------2---2--2----|
G|-----2--------------------------------------2----------------2-----------|
Dm A Dm


Part 2:
A|---1---1---5---3---1---0------0---------0------------0---0----------------|
E|---3-------------------1---1-----3--1---0---0--1--3------1----------------|
C|---2-------------------2----------------1----------------2---2--2---------|
G|---0-------------------2----------------2----------------2----------------|
Gm Dm A Dm


Part 3:

A|---0---------0------------0--5---4---5~-----------------------------------|
E|---1----1----0----0-----1--------5---5~-----------------------------------|
C|---2---------1--------2----------4---5~-----------------------------------|
G|---2---------0------------------------------------------------------------|
Dm A7 Dm A Dm


**
This is the same Tetris Brick theme, transposed down a key. It won't necessarily help you play the tetris theme just like Aldrine, but it might come in handy :)