Have A Little Dream On Me - Fats Waller

Fuzzy

New member
Joined
Oct 11, 2009
Messages
499
Points
0
I heard this tune last night on one of the satellite music channels and fell in love with it. I can't find the chords anywhere online and would like to learn how to play it. Can anyone help me? (no tabs, please...I still need to learn how to read those suckers).

For that matter, does anyone have any good links to early jazz/tin pan alley type song sites?

Thanx for your help!
 

jtcanes

New member
Joined
Jul 27, 2010
Messages
11
Points
0
i play it with GCEA tuning and the chords are C then , 2232, 3435, G, for stars shining bright above you, then the same for the next line except the G at the end is A7, then 3rd line is F and Fminor, finally the lat line is C, 3435, G, the tab intro goes

A|----------------------------------------1-4-1-------------------|
E|--5-4-5-4--3-5-4--------5-4-5-4--3----------4-2-------------|
C|---------------------------------------------------------------|
G|---------------------------------------------------------------|


A|---2-0-2-0----2-0-----0---2-3-2-2----------------------------------------|
E|-----------2---------0------------------------------------|
C|---------------------------------------------------------------|
G|---------------------------------------------------------------|
 

wheelgunner

New member
Joined
Apr 30, 2008
Messages
188
Points
0
I found the chords for Dream a little dream of me on bettylou.zzrus.com (I think that's where I found it)
For some really nice early jazz chord sheets check out ukesterbrown.weebly.com
 
Last edited:

Fuzzy

New member
Joined
Oct 11, 2009
Messages
499
Points
0
Thanks, folks, I'll play Dream A Little Dream Of Me as well, it's a great one. I'm actually looking for Have A Little Dream On Me!
Thanx, janeray, I'll definitely check those out.
 

Jnobianchi

New member
Joined
Aug 6, 2010
Messages
1,318
Points
0
Ugh -

This one's hard to find. I used to have a bunch of Billy Rose sheet music, and this was among it, but no longer.