Page 1 of 2 12 LastLast
Results 1 to 10 of 13

Thread: Whooo-ooaaahh..... Amber is the coluh of ya energy...

  1. #1
    Join Date
    Dec 2007
    Location
    kalihi valley
    Posts
    6

    Default Whooo-ooaaahh..... Amber is the coluh of ya energy...

    anybody know dat song tabs. by 311 called amber.. i know aldrine does right aldrine ?

  2. #2
    Join Date
    Dec 2007
    Location
    Chicago
    Posts
    11,340

    Default

    diezo808, one of our members, does it on YouTube.

    http://youtube.com/watch?v=tESicuKrjmE

  3. #3
    Join Date
    Nov 2007
    Location
    Long Beach/Carson, California
    Posts
    615

    Default

    diezo808 does it on a 6 string. I can do it on a 4 string. I'll post up the video sometime next week.
    Twitter
    Youtube
    Ukes:
    Taira (Lanikai LU-21TE/BK) [Signed and Enjoying]

  4. #4
    Join Date
    Nov 2007
    Location
    San Diseasey
    Posts
    2,254

    Default

    Quote Originally Posted by Misguided Musician View Post
    diezo808 does it on a 6 string. I can do it on a 4 string. I'll post up the video sometime next week.
    i believe diezo's is an 8 string.

  5. #5
    Join Date
    Feb 2008
    Posts
    127

    Default amber tabs by 311

    Does anyone have the tabs for Amber by 311....
    i know there's videos on youtube, but i just can't seem to figure it out.
    thanks!

  6. #6
    Join Date
    Mar 2008
    Location
    Hayward, CA
    Posts
    261

    Default

    I partly figured out this song a couple days ago.
    Truly a dope song on a uke, and not to mention on a bass too.

    Intro;
    |----------2--------------3--7---3------------2-------2-
    |--0h1--3----3------3h5---------------0h1--3----3--3--3
    |--------------------------------------------------------
    |--------------------------------------------------------

    ^^* REPEAT x2 *^^

    Chords;
    |---3-3----3-3----2-2----2-2
    |---3-3----5-5----3-3----3-3
    |---4-4----4-4----4-4----2-2
    |---5-5----5-5----4-4----4-4

    ^^* REPEAT x? *^^

    That's all I remember. Intro, plus chords.

  7. #7
    Join Date
    Feb 2008
    Posts
    127

    Default

    thanks so much!
    i was going crazy over here.
    XD

  8. #8
    Join Date
    Mar 2008
    Location
    Hayward, CA
    Posts
    261

    Default

    Yeah, there is also another thread on this song. I contributed in there and posted my tabs for it.

  9. #9
    Join Date
    Feb 2008
    Posts
    127

    Default

    I partly figured out this song a couple days ago.
    Truly a dope song on a uke, and not to mention on a bass too.

    Intro;
    |----------2--------------3--7---3------------2-------2-
    |--0h1--3----3------3h5---------------0h1--3----3--3--3
    |--------------------------------------------------------
    |--------------------------------------------------------

    ^^* REPEAT x2 *^^

    Chords;
    |---3-3----3-3----2-2----2-2
    |---3-3----5-5----3-3----3-3
    |---4-4----4-4----4-4----2-2
    |---5-5----5-5----4-4----4-4

    ^^* REPEAT x? *^^

    That's all I remember. Intro, plus chords.




    courtesy of degracia.

    =D

  10. #10
    Join Date
    Nov 2007
    Location
    da mainland, California
    Posts
    2,382

    Default

    merged threads with the other "Amber"

Thread Information

Users Browsing this Thread

There are currently 1 users browsing this thread. (0 members and 1 guests)

Bookmarks

Posting Permissions

  • You may not post new threads
  • You may not post replies
  • You may not post attachments
  • You may not edit your posts
  •