Results 1 to 6 of 6

Thread: Isn't She Lovely Snippet

  1. #1
    Join Date
    May 2012
    Location
    Irvine, CA
    Posts
    273

    Default Isn't She Lovely Snippet

    Hi! Here's a fun lick to play when you're testing out ukes or wanna impress some honeydips



    Tab (also in video description)
    Code:
                   Am9                 D7                  G7                  Cmaj9
    A|-5s7-8---6s7-5---------3---------3---------7-8---6s7-5---------3-----------5-------|
    e|-------x-------3-x-x---5---x-----2---x-x---5---x-------3-x-x---1---3s5-3---3-x-x---|
    c|-------x-----4---x-x-4---4-x-3---2-2-x-x-2---9-x-6s7-5---x-x-2---2-x-----0---x-x-4-|
    g|-------------2---------4-------0---------------------0-----------------------------|
    
       C7+5      Am9                 D7                  G7                  Cmaj9
    A|-7-8---6s7-5---5s7p3---3-------3---------7-8---6s7-5---------3-----------5-------7-8--10---|
    e|-4---x-------3-------5---x-----2---x-x---5---x-------3-x-x---1---3s5-3---3-x-x---8-10------|
    c|-----x-----4-----------4-x-3---2-2-x-x-2---9-x-6s7-5---x-x-2---2-x-----0---x-x-0-----------|
    g|-----------2-----------4-----0---------------------0-------------------------------------0-|
    
       Fmaj9               Fdim                  Am9                     D7
    A|-10---------7-8---10-8-------------8---8---5s7-5---3---3h5s6s5-3-0-----------7-8---7-|
    e|-5--5-x-x---5---x----7-7-x-x---6s7---x-7---7s8---x-----3h5s6s5-------2-x-x---5---x---|
    c|-5----x-x-5-----x----8---x-x---7s8---x-8---9-----x---0-------------2---x-x-2---9-x-7-|
    g|-5-------------------7-------7---------7-0-------------------------------------------|
    
       Dm7                 G7                  Cmaj9
    A|-5---------3---------0-0-----------------3---------------10h12-15-15-15-|
    e|-5---x-x---1---x-x---7---x-4---3---x-x---0-x-----8h10s12----------------|
    c|-5-5-x-x-2---2-x-x---5---x-5---2---x-x---0-x-7h9------------------------|
    g|-5-----------------0---------0---0-----0--------------------------------|
    Chords
    Am9: 4453
    D7: 2223
    G7: 0212
    Cmaj9: 0035
    Fmaj9: 0503 (or 5537)
    Fdim: 1212 (or 4545)
    Dm7: 2213
    Last edited by CasanovaGuy; 08-07-2019 at 12:58 PM. Reason: Formatting
    Youtube
    Mililani, Hawai'i // Irvine, California
    UC Irvine c/o 2018
    Yes, of course you should watch Shigatsu

  2. #2
    Join Date
    Jul 2017
    Location
    Corvallis, Oregon
    Posts
    302

    Default

    Wow wee! Fabulous playing, CasanovaGuy!
    KoAloha KCM-00 (koa concert)
    KoAloha Opio KCO-10 (acacia concert)
    Thormahlen Yew-kulele (yew concert)
    Flight TUS35 (blue soprano)
    UKES LOOKING FOR A NEW HOME:
    *Ohana TK-35CG (mahogany tenor w/cutaway)
    *Kala KA-SLNG (long neck soprano)
    *Snail SUC (solid top mahogany concert)

  3. #3
    Join Date
    Jun 2014
    Location
    CH
    Posts
    1,753

    Default

    Fun lick indeed, and great playing. Thanks for posting the video and tabs.

  4. #4
    Join Date
    Apr 2015
    Location
    Toronto , Canada
    Posts
    2,171

    Default

    Too short........I started dancing and you stopped
    More more more please
    Great stuff with a WOW!

  5. #5
    Join Date
    Jul 2017
    Location
    Essex, UK
    Posts
    1,378

    Default

    I gotta say, despite it being far too short, that that was pretty darn good!!
    Luv n stuff, Dave

    YouTube Channel: https://www.youtube.com/channel/UC1N...SLlEsi_kIIi4zg

    * GUITARS
    Freshman Apollo 6 string electro acoustic
    50yr old EKO 12 string jumbo
    American Fender Stratocaster deluxe
    American Gibson SG Special
    Harley Benton TE-40 TBK Deluxe (Telecaster)
    Ibanez GSR200 BASS

    * UKES
    Ozark 2035 banjole
    Kmise tenor banjole
    Cordoba 22T-CE Tenor
    Kala KA-CE electro acoustic

    * OTHERS
    Kawai KM-10 Grand piano & Technics KN-2000 keyboard

  6. #6
    Join Date
    Oct 2017
    Location
    West Virginia, USA
    Posts
    1,367

    Default

    Fantastic. Looking forward to the full version.
    A day without playing uke is a day not well lived.

    Joseph

Thread Information

Users Browsing this Thread

There are currently 1 users browsing this thread. (0 members and 1 guests)

Bookmarks

Posting Permissions

  • You may not post new threads
  • You may not post replies
  • You may not post attachments
  • You may not edit your posts
  •