Page 1 of 4 123 ... LastLast
Results 1 to 10 of 31

Thread: B.U.B - Deeper In Love

  1. #1
    Join Date
    Dec 2007
    Location
    Long Beach
    Posts
    10

    Default B.U.B - Deeper In Love


  2. #2
    Join Date
    Dec 2007
    Location
    Chicago
    Posts
    11,343

    Default

    The chords he's playing are:

    | Ab - - - | Bb - - - | Eb - - - | C - - - |

    And the picking is:

    Code:
    |-------6-3------|-------3-1------|-------8-5------|-------5-3------|
    |---4-------4----|---1-------1----|---6-------6----|---3-------3----|
    |5---------------|2---------------|7---------------|4---------------|
    |----------------|----------------|----------------|----------------|
    Last edited by seeso; 04-13-2008 at 02:15 PM.

  3. #3
    Join Date
    Dec 2007
    Location
    Long Beach
    Posts
    10

    Default

    do u noe the picking if you transfer to guitar seeso

    http://www.youtube.com/watch?v=x-I4r8D8g8s&NR=1

  4. #4
    Join Date
    Dec 2007
    Location
    Chicago
    Posts
    11,343

    Default

    Quote Originally Posted by lbcjfr3sh View Post
    do u noe the picking if you transfer to guitar seeso

    http://www.youtube.com/watch?v=x-I4r8D8g8s&NR=1
    Did you even try?

  5. #5
    Join Date
    Dec 2007
    Location
    Long Beach
    Posts
    10

    Default

    my friend has the guitar and im asking for cuz he cant do it by ear or find it. also were gonna perform dis on hawaiin day

  6. #6
    Join Date
    Dec 2007
    Location
    Chicago
    Posts
    11,343

    Default

    The earlier chords that the kid was playing in the video were slightly off. He was playing major chords, but they're minor in the actual song.

    For guitar:

    | Fm - - - | Bb - - - | Gm - - - | C - - - |

    And the picking is:

    Code:
    |------11-8------|-------8-6------|------13-10-----|------10-8------|
    |---9-------9----|---6-------6----|---11------11---|---8-------8----|
    |10--------------|7---------------|12--------------|9---------------|
    |----------------|----------------|----------------|----------------|
    |----------------|----------------|----------------|----------------|
    |----------------|----------------|----------------|----------------|

  7. #7
    Join Date
    Mar 2008
    Posts
    22

    Default

    do u kno what the strumming pattern is?

  8. #8
    Join Date
    Dec 2007
    Location
    Chicago
    Posts
    11,343

    Default

    The best way to learn this stuff is by trying! Just experiment with stuff. You won't get anywhere if you just ask all the time.

    There isn't any strumming in the song.

    But you can approximate what the keyboard is doing. It punches in during part of the intro and throughout the choruses.

    If you count to 8, you can strum on 3, 6, and 7.

    So like, 1, 2, STRUM, 4, 5, STRUM, STRUM, 8.

  9. #9
    Join Date
    Mar 2008
    Posts
    22

    Default

    wait im confused. haha sorry..

  10. #10
    Join Date
    Dec 2007
    Location
    Chicago
    Posts
    11,343

    Default

    Seriously? What are you confused about?

Thread Information

Users Browsing this Thread

There are currently 1 users browsing this thread. (0 members and 1 guests)

Tags for this Thread

Bookmarks

Posting Permissions

  • You may not post new threads
  • You may not post replies
  • You may not post attachments
  • You may not edit your posts
  •