Page 1 of 2 12 LastLast
Results 1 to 10 of 11

Thread: don't cry for me argentina

  1. #1
    Join Date
    Oct 2011
    Location
    Australia
    Posts
    486

    Default don't cry for me argentina


  2. #2
    Join Date
    Jul 2011
    Location
    Toronto, Canada, eh!
    Posts
    2,927

    Default

    Oh man, I'd love the chords to that as well!

    That video was done by UU member WS64.

    http://www.ukuleleunderground.com/fo...r-Me-Argentina
    Last edited by Trinimon; 03-13-2012 at 03:15 AM.

  3. #3
    Join Date
    Oct 2011
    Location
    Australia
    Posts
    486

    Default

    i have figured out the first part of the tabs, but i am stuck with next part, surely one member can help me out here........ws64 wont have time to write the tab for this, he must be very easy with his current job, 'to play musical instrument'

  4. #4
    Join Date
    Oct 2011
    Location
    Australia
    Posts
    486

    Default

    anyone??????????????

  5. #5

    Default

    I second 1300cc and I plea for someone's generosity..................

  6. #6
    Join Date
    Jan 2011
    Posts
    15

    Default

    Really a wonderful song. I started to tab it out, but it's not that easy and will take some time.....

  7. #7
    Join Date
    Oct 2011
    Location
    Australia
    Posts
    486

    Default

    hi sleepysheep

    how about sending me your tab and ill send mine.....

  8. #8
    Join Date
    Dec 2010
    Location
    Richland, WA USA
    Posts
    334

    Default

    that was simply stunning!
    Ukunuke

    "Life is a series of ups and downs . . . I choose the ups."

    Kanile'a Islander koa custom tenor, Kamaka HF-2 concert, + a guardian sock monkey

  9. #9
    Join Date
    Jan 2011
    Posts
    15

    Default

    so I finished as best as I could, posted it already in the chords and tabs section, but seems that it didn't worked there, so hope it will work here...

    hope it is of some help, I'am not quite sure about the tab in the part when he strums, but there just keep to the video


    Code:
     Don’t cry for me argentina
    
    * = strumming according to the video
    ^ = upstroke
    h = hammer on
    / = upslide
    \ = downslide
    x = chunk
    
    
      *            x
    |-0--3-3-3-3-3---3-3-3/-8-8-5-----5-------5-5-5-5-5-3-3----3-3-|
    |-1----1-----1-----1--------6---6---6---6-6-----6-----3--3-----|
    |-0----0-----0-----0--------5-5-------5---5-----5-----4--------|
    |-2----2-----2-----2--------5-------------5-----5-----5--------|
    
                                    x            x     x  
    |---0-1-1-1-1-1-1-1-0---0-----0---0-0-3/5-5--------------------|
    |-3---3-----3-----0---3-1---1-------1-----5-----5----5-5-5-5-5-|
    |-----0-----0-----0-----0-0---------0-----5----------5-----5---|
    |-----0-----0-----2-----2-----------2-----5---5------5-----5---|
    
                    x   ^ ^ ^ ^       x  *                  x  * * *
    |-3-3/2-2-0h2-2---------------0-----------------5-3-2/3----0-1-0-|
    |---3-------------3-1-1-1-1-----3----3--0-3-3-3-3-----0----0-0-0-|
    |---2---------------2-2-2-2-----2----2----2-----2-----0----0-0-0-|
    |---0---------------0-0-0-0-0---0----0----0-----0-----0----0-0-0-|
    
                       *                      *             *             *               *               *
    |-0-0-0-0-1-3-5-3--3--3-5-5-3-3/8--3-1-0--0--0-1-3------0-------------0----------0-3--3---------------0-|
    |-1-1-1-1-3-5-6-5--5--5-6-6-5-5/10-5-3-1--1--1-3-5-3-3--3--3-5-6\1-1--1--1-1/3\1-1----0------------1--1-|
    |-0-----0----------0-------------------0--0--0-----4----4--4-5-7\2----2--2-2/4\2-0----1--0-0-0-0h2----0-|
    |-2-----2----------0-------------------2--2--2----------0-------------0----------2----2---------------2-|
    
                                                            x     *                                         *                                                      *
    |-3-3-1-0-1-3-3-3-3/8-8-5----5--5-5-5-5-5-5-3-3--3----0-1-1-1-1-1-1-1-0----0-|
    |---1-------1---1-------6----6----6-----6-----3--3--3---3-----3-----0---3--1-|
    |---0-------0---0-------5----5----5-----5-----4--4------0-----0-----0------0-|
    |---2-------2---2-------5----5----5-----5-----0--0------0-----0-----2------2-|
    
    
                            *           *                                                        x       ^  ^  ^  ^                 *
    |-0-0-3/5--5-----5------------3-3/2-2-0h2-2---------------0------|
    |---1---5--5--5--5--5-5-5-5-5---3-------------3-1-1-1-1-----3--3-|
    |---0---5--5-----5--5-----5-----2---------------2-2-2-2-----2--2-|
    |---2---5--5-----5--5-----5-----0---------------0-0-0-0-0---0--0-|
    
        ^      ^   ^                      * * *  *             *
    |-3-3-3--5-5-5-5--3----------5-3-2-3--0-1-0--0--0-0-0-0-0--0--0-----------|
    |-3-3-3--5-5-5-5--3--0-3-3-3-3-----0--0-0-0--1------1------1--1-3-1-3-3---|
    |-2-2-2--0-0-0-0--2----2-----2-----0--0-0-0--0------0------0--0---------0-|
    |-0-0-0--0-0-0-0--0----0-----0-----0--0-0-0--2------2------2--2-----------|
    
        ^      ^   ^     *             ^   ^              x ^ *
    |-3-3-3--5-5-5-5--3--0--0-0-0-0-0--0-0-0--0-------3-0---0-0-|
    |-3-3-3--5-5-5-5--3--1------3------3-3-3----3-0-3---1---1-1-|
    |-2-2-2--0-0-0-0--2--0------2------2-2-2--------2---0---0-0-|
    |-0-0-0--0-0-0-0--0--0------0------0-0-0--------0---2---2-2-|
    
                       *                      *             *             *               *               *
    |-0-0-0-0-1-3-5-3--3--3-5-5-3-3/8--3-1-0--0--0-1-3------0-------------0----------0-3--3---------------0-|
    |-1-1-1-1-3-5-6-5--5--5-6-6-5-5/10-5-3-1--1--1-3-5-3-3--3--3-5-6\1-1--1--1-1/3\1-1----0------------1--1-|
    |-0-----0----------0-------------------0--0--0-----4----4--4-5-7\2----2--2-2/4\2-0----1--0-0-0-0h2----0-|
    |-2-----2----------0-------------------2--2--2----------0-------------0----------2----2---------------2-|
    
                       *                      *             *             *               *              
    |-0-0-0-0-1-3-5-3--3--3-5-5-3-3/8--3-1-0--0--0-1-3------0-------------0----------0-3--3--------------|
    |-1-1-1-1-3-5-6-5--5--5-6-6-5-5/10-5-3-1--1--1-3-5-3-3--3--3-5-6\1-1--1--1-1/3\1-1----0------------1-|
    |-0-----0----------0-------------------0--0--0-----4----4--4-5-7\2----2--2-2/4\2-0----1--0-0-0-0h2---|
    |-2-----2----------0-------------------2--2--2----------0-------------0----------2----2--------------|
    Last edited by SleepySheep; 03-28-2012 at 11:49 AM.

  10. #10
    Join Date
    Oct 2011
    Location
    Australia
    Posts
    486

    Default

    thank you for submitting the tabs......

Thread Information

Users Browsing this Thread

There are currently 1 users browsing this thread. (0 members and 1 guests)

Bookmarks

Posting Permissions

  • You may not post new threads
  • You may not post replies
  • You may not post attachments
  • You may not edit your posts
  •