Page 1 of 2 12 LastLast
Results 1 to 10 of 13

Thread: Aldrine's New Vid.

  1. #1
    Join Date
    Feb 2008
    Location
    Lakewood, Ca (next to longbeach)
    Posts
    191

    Smile Aldrine's New Vid.

    Man i cant wait for this instructional video.....

    http://www.youtube.com/watch?v=5yTXAlVBxCw
    I Was a post whore. But im back so lets see what we can do to become one again...

  2. #2
    Join Date
    Feb 2008
    Location
    Ogden UT
    Posts
    2,705

    Default

    He is so incredibly skilled.

  3. #3
    Join Date
    Jan 2008
    Location
    CT =(
    Posts
    152

    Default

    awesome as always.

  4. #4
    Join Date
    Feb 2008
    Location
    Moanalua
    Posts
    231

    Default

    Man Aldrine can move around that fretboard! Here I am still buzzing chords. Oh well, time to pick this thing up and practice until my fingers blister .
    Haha. No, your mother plays a "mini guitar". This is an ooo kooo le le. Can u say that with me?.....

  5. #5
    Join Date
    Jan 2008
    Location
    Australia, Sydney to Newcastle
    Posts
    5,508

    Default

    it reminds me of spain for some reason, tetris is that block game isnt it??

  6. #6
    Join Date
    Feb 2008
    Location
    Lakewood, Ca (next to longbeach)
    Posts
    191

    Default

    Quote Originally Posted by UkuLeLesReggAe View Post
    it reminds me of spain for some reason, tetris is that block game isnt it??
    Yup, you should check out human tetris on youtube its halarious...

    Howlie Boy
    I Was a post whore. But im back so lets see what we can do to become one again...

  7. #7
    Join Date
    Dec 2007
    Location
    Carson California
    Posts
    248

    Default

    Quote Originally Posted by UkuLeLesReggAe View Post
    it reminds me of spain for some reason, tetris is that block game isnt it??
    For some reason I thought Spain as well o.o

  8. #8
    Join Date
    Dec 2007
    Location
    Austria; Vienna
    Posts
    55

    Default

    Quote Originally Posted by Howlie Boy View Post
    Man i cant wait for this instructional video.....

    http://www.youtube.com/watch?v=5yTXAlVBxCw
    When I started playing the ukulele a friend of mine tabed me the tetris melody. Its quit easy, I will make a video on Sunday maybe with a little lesson or I will post the tabs for it in the tab section.

  9. #9
    Join Date
    Jan 2008
    Location
    Dededo, Guam
    Posts
    1,547

    Default Tetris Tab!

    This is a great little tune to add to your ukulele repertoire! The way Aldrine does it is great, but tricky. I think this will help a little bit. Feedback is appreciated because it probably will have to be revised.. Hopefully this will help you out in anticipation for the actual video tutorial.

    Chords for this song: Gm and D(7) and Cmin7

    Chord shapes:
    Gm: 1320, 567x, and (10 10 10 X) spaced because of double digits
    D: 0222, and (9 10 9 X)
    Cmin7: 3333

    I will do a simplified TAB for it:
    [B]
    Code:
    Tetris Simplified (Davoo's tab based off Aldrine's video)
    
    Part 1: 
    
    A|--5---0---1---3---1---0--------------1--5--3--1--0---0---1---3---5--------|
    E|--3------------------------3----3--------------------2--------------------|
    C|--2--------------------------------------------------2--------------------|
    G|-----------------------------------------------------2--------------------|
          Gm                                               D
    
    A|---1----------------------------------------------------------------------|
    E|---3---3---3--------------------------------------------------------------|
    C|---2----------------------------------------------------------------------|
    G|--------------------------------------------------------------------------|
          Gm
    
    Part 2:
    A|---3---6---6/10--8--6----5---1---5---3--1--2--0--1--3---5-----------------|
    E|---3---------------------3-----------------2------------------------------|
    C|---3---------------------2-----------------2------------------------------|
    G|---3---------------------------------------2------------------------------|
        Cmin7                 Gm  
    A|---1----------------------------------------------------------------------|
    E|---3---3---3--------------------------------------------------------------|
    C|---2----------------------------------------------------------------------|
    G|--------------------------------------------------------------------------|
          Gm
    
    Part 3:
    
    A|---5------1--------3-------0-------------5---- 10-----9----------10~-----|
    E|---3---------------2-----------------6----------------10---------10~-----|
    C|---2---------------2-------------7--------------------9----------10~-----|
    G|-------------------2-----------------------------------------------------|
         Gm              D7            Gm                   D          Gm
    
    **Note, I put the basic chord shapes and the melody.
    it's up to you to put all those nifty fillers and extra notes.  
    An easy way to do this is to hold the basic shape with your fretting hand and 
    pick the other notes in the chord while still keeping the melody going. 
    You can fill the phrase with notes from each chord until you see the chord change.
    I hope that isn't confusing. 
    It gets easier the more times you play the melody.
    (Repeat each part the appropriate amount of times)
    
    Last edited by davoomac; 02-23-2008 at 03:43 AM. Reason: edited to incorporate the missed note. thanks ikaru

  10. #10
    Join Date
    Dec 2007
    Location
    Austria; Vienna
    Posts
    55

    Default

    @davoomac:
    thats a great version too. I think u missed a note (d) at the 2 Part here:
    Code:
    Part 2:
    --0--0--1--3--5------------------|
    --2------------------------------|
    --2------------------------------|
    --2------------------------------|
    The version of my friend is:
    A,Dm and Gm

Thread Information

Users Browsing this Thread

There are currently 1 users browsing this thread. (0 members and 1 guests)

Bookmarks

Posting Permissions

  • You may not post new threads
  • You may not post replies
  • You may not post attachments
  • You may not edit your posts
  •