Page 2 of 2 FirstFirst 12
Results 11 to 13 of 13

Thread: Aldrine's New Vid.

  1. #11
    Join Date
    Jan 2008
    Location
    Dededo, Guam
    Posts
    1,547

    Default

    Quote Originally Posted by Ikaru View Post
    @davoomac:
    thats a great version too. I think u missed a note (d) at the 2 Part here:
    Code:
    Part 2:
    --0--0--1--3--5------------------|
    --2------------------------------|
    --2------------------------------|
    --2------------------------------|
    The version of my friend is:
    A,Dm and Gm
    thanks for pointing that one out!

  2. #12
    Join Date
    Nov 2007
    Location
    da mainland, California
    Posts
    2,381

    Default

    Quote Originally Posted by davoomac View Post
    thanks for pointing that one out!
    i fixed it for you

  3. #13
    Join Date
    Jan 2008
    Location
    Dededo, Guam
    Posts
    1,547

    Default

    Quote Originally Posted by Ikaru View Post
    The version of my friend is:
    A,Dm and Gm

    Tetris Brick Theme Tab in different key
    tabbed by Davoo

    You can also play the brick theme in another key. Here are the chords
    Dm: 0122, 555x
    A: 0012, 4540
    Gm: 1320

    Code:
    Part 1: 
    
    A|-----0--------------------------0-----------0-------------0--0-----------|
    E|-----1--0--1--3--1--0--------1------3--1----0---0--1--3------1-----------|
    C|-----2-----------------2--2-----------------1----------------2---2--2----|
    G|-----2--------------------------------------2----------------2-----------|
          Dm                                      A                Dm
    
    
    Part 2:
    A|---1---1---5---3---1---0------0---------0------------0---0----------------|
    E|---3-------------------1---1-----3--1---0---0--1--3------1----------------|
    C|---2-------------------2----------------1----------------2---2--2---------|
    G|---0-------------------2----------------2----------------2----------------|
        Gm                   Dm               A                Dm
    
    
    Part 3:
    
    A|---0---------0------------0--5---4---5~-----------------------------------|
    E|---1----1----0----0-----1--------5---5~-----------------------------------|
    C|---2---------1--------2----------4---5~-----------------------------------|
    G|---2---------0------------------------------------------------------------|
        Dm         A7       Dm         A   Dm

    **
    This is the same Tetris Brick theme, transposed down a key. It won't necessarily help you play the tetris theme just like Aldrine, but it might come in handy

Thread Information

Users Browsing this Thread

There are currently 1 users browsing this thread. (0 members and 1 guests)

Bookmarks

Posting Permissions

  • You may not post new threads
  • You may not post replies
  • You may not post attachments
  • You may not edit your posts
  •