Results 1 to 4 of 4

Thread: Maui Chimes - solo arrangement

  1. #1
    Join Date
    Nov 2012
    Posts
    185

    Default Maui Chimes - solo arrangement

    I really like this arrangement by Sam Lemann. Lots of movement going on.



    I want to try to get this one, anybody up for helping? I think it's in A. This is sort of the first bit, just the beginning to get started.

    Code:
    A|---------4---2-----0-0-
    E|-------0-0---0---0---0-
    C|-1-2-3---1-2-2-1-----1-
    G|---------2---1-------2-
    
    A|-2-0-2---
    E|-0-0-0---
    C|-1-1-1---
    G|-2-2-2---

  2. #2
    Join Date
    Nov 2012
    Posts
    185

    Default

    Some more little bits, not completely correct, but enought to start the engines...

    Code:
    A|-2-0-2---5-4-2-0-------------------
    E|-0-0-0---0-0-0-0-------------------
    C|-1-1-1---2-2-2-1-------------------
    G|-2-2-2---1-1-1-2-------------------
    
    A|---0-4-4-----0-4-4-----0-4---0-4-4-0--
    E|-0---2-2---0---2-2---0---2-0---2-2-0--
    C|-----4-4-------4-4-------4-----4-4-1--
    G|-----2-2-------2-2-------2-----2-2-2--

  3. #3
    Join Date
    Nov 2012
    Posts
    185

    Default

    Getting there!

    Code:
    Part A - play twice
    A|---------4---2-----0-0-
    E|-------0-0---0---0---0-
    C|-1-2-3---1-2-2-1-----1-
    G|---------2---1-------2-
    
    A|-0-2-0-4-5-4-2-2-0---------------
    E|-0-0-0-0-0-0-0-4-0---------------
    C|-1-1-1-2-2-2-2-2-1---------------
    G|-2-2-2-1-1-1-1-1-2---------------
    
    Part B
    A|-4-4-4-5-4-2-2---|-2-2-2-4-2-0-0-------------
    E|-2-2-2-2-2-2-2---|-2-2-2-2-2-0-0-------------
    C|-4-4-4-4-4-2-2---|-2-2-2-2-2-1-1-------------
    G|-2-2-2-2-2-1-1---|-1-1-1-1-1-2-2-------------
    
    A|---0-2-0-4-5-4-2---4-4-4-5-4-2-2---
    E|--0--0-0-0-0-0-0-0-2-2-2-2-2-2-2---
    C|-1---1-1-2-2-2-2---4-4-4-4-4-2-2---
    G|-2---2-2-1-1-1-1---2-2-2-2-2-1-1---
    
    A|-2-2-2-4-2-0-0---|---0-2-0----5-4-2---0-0---
    E|-2-2-2-2-2-0-0---|--0--0-0--0-0-0-0-4-0-0---
    C|-2-2-2-2-2-1-1---|-1---1-1----2-2-2---1-1---
    G|-1-1-1-1-1-2-2---|-2---2-2----1-1-1---2-2---
    
    Part C
    A|---0-4-4-----0-4-4-----0-4---0-4---0-4-4-0-4-7-7-7-7-4-0-2-----
    E|-0---2-2---0---2-2---0---2-0---2-0---2-2-0-0-0-0-0-0-0-0-0-----
    C|-----4-4-------4-4-------4-----4-----4-4-1-1-4-4-4-4-1-1-2-----
    G|-----2-2-------2-2-------2-----2-----2-2-2-2-5-5-5-5-2-2-1-----

  4. #4

    Default Tabs for Maui Chimes

    In case you're interested, Tobias Elof did a version of Maui Chimes on The Ukulele Site's video podcast and talks a bit about how to play it (Youtube Video ). He also recently put the tabs for sale on his website at: https://tobiaselof.com/shop.html#!/p...lified-version

    I found another guy selling tabs for Maui Chimes but didn't really investigate his. You can find it at https://www.ukulelepotato.com/en/produit/maui-chimes-2/

Thread Information

Users Browsing this Thread

There are currently 1 users browsing this thread. (0 members and 1 guests)

Bookmarks

Posting Permissions

  • You may not post new threads
  • You may not post replies
  • You may not post attachments
  • You may not edit your posts
  •