Coldplay - Clocks

ahreeka

Well-known member
Joined
Nov 21, 2008
Messages
205
Reaction score
0
Location
Paradise Hills, San Diego
Coldplay - Clocks

Code:
Chords: D, Am, Em

A |--------------------------------------------2-----2-----2--
E |---2----2----2---0----0--------0----0----0---3-----3-------
C |----2----2---------0----0--------0----0-------4-----4------
G |--2---2----2---2----2----2----2----2---2-------------------

x2

There was an easier way, I dunno why I didn't just post that. Oh well, exercise your fingers :).

Chords:
D (2220)
Am (2000) x2
Em (0432)

Bridge:
Fmaj7 (5555) x2
C (0003)
G (0323)
x3
F (2010) x4
 
Last edited:
Another, better way:

Code:
Chords: High D, C, Em

A |--5----5---5--3----3----3--3----0----3--2---2---2------
E |----2----2---2--0----0----0--0----0----0--3---3---3----
C |-----2----2-------0----0--------0----0------4---4------
G |-------------------------------------------------------

x2

Chords:
High D (2225)
C (0003) x2
Em (0432)

Bridge:
Fmaj7 (5555) x2
C (0003)
G (0323)
x3
F (2010) x4
 
Last edited:
nice wouldn't have thought about playing this on the uke.
 
Code:
a||---6--------6--------6-----|--5--------5--------5-----|
e||*-----6--------6--------6--|-----6--------6--------6--|
c||*--------7--------7--------|--------7--------7--------|
g||---------------------------|--------------------------|

  
--5--------5--------5-----|--3--------3--------3------||
-----6--------6--------6--|-----4--------4--------4--*||
--------7--------7--------|--------5--------5--------*||
--------------------------|---------------------------||

This is the version I got from some piano sheet music. Chords are Eb, Bbm twice, Fm.
 
Code:
a||---6--------6--------6-----|--4--------4--------4-----|
e||*-----6--------6--------6--|-----6--------6--------6--|
c||*--------7--------7--------|--------5--------5--------|
g||---------------------------|--------------------------|

  
--4--------4--------4-----|--3--------3--------3------||
-----6--------6--------6--|-----4--------4--------4--*||
--------5--------5--------|--------5--------5--------*||
--------------------------|---------------------------||
I think this is closer
 
Code:
a||---6--------6--------6-----|--4--------4--------4-----|
e||*-----6--------6--------6--|-----6--------6--------6--|
c||*--------7--------7--------|--------5--------5--------|
g||---------------------------|--------------------------|

  
--4--------4--------4-----|--3--------3--------3------||
-----6--------6--------6--|-----4--------4--------4--*||
--------5--------5--------|--------5--------5--------*||
--------------------------|---------------------------||
I think this is closer
I have to agree.
 
Clocks by Coldplay

I figured out the piano riff from Clocks

It's

-6-----6-----6----4-----4-----4----4-----4-----4----3----3------3-----[
---6-----6-----6----6-----6-----6----6-----6-----6----4----4------4---[
-----7-----7----------5-----5----------5-----5----------5-----5-------[
-----------------------------------------------------------------------[

then repeat and thats it ^^

hope you enjoy!


PS: The chords are

D# Maj : 8766
A# min : 6564
F min : 5543
 
Last edited:
i think its 7 on the c string for the first part....... sounds better to me anyway. good tab though, thanks.
 
Clocks by Coldplay - Complete Tab

Hey ukers. I wrote out a complete ukulele tab for "Clocks" and thought I'd share it with the rest of you. You can download it in PDF format here:

Code:
http://rapidshare.com/files/306039925/coldplay_clocks_uke_tab.pdf

Cheers!
 
Last edited:
I figured out the piano riff from Clocks

It's

-6-----6-----6----4-----4-----4----4-----4-----4----3----3------3-----[
---6-----6-----6----6-----6-----6----6-----6-----6----4----4------4---[
-----7-----7----------5-----5----------5-----5----------5-----5-------[
-----------------------------------------------------------------------[

then repeat and thats it ^^

hope you enjoy!


PS: The chords are

D# Maj : 8766
A# min : 6564
F min : 5543




I find it a bit easier like this (sounds the same):


-6-----6-----6----4-----4-----4----4-----4-----4----3----3------3-----[
---6-----6-----6----6-----6-----6----6-----6-----6----4----4------4---[
----------------------5-----5----------5-----5----------5-----5-------[
-----0-----0-----------------------------------------------------------[
 
Top Bottom