Drop Baby Drop ft. Jake Shimabukuro Tabs

808beast

Active member
Joined
Jul 25, 2011
Messages
35
Reaction score
0
Location
Hawaii
That's right. Two awesome ukulele players (Jake on uke and Aldrine on vocals/guitar) have covered this song. For those of you who haven't heard this version, here's a link:
http://www.youtube.com/watch?v=uCqukJLEzUI

I don't know if this has been tabbed yet. If so, message me and maybe we can combine the tabs into one super-special awesome tab. Anyways, here are the picking parts:
Code:
Intro:
A|-0-0---------0---0-0h2-2-0---0-0---------0-2-0-2/4-----0-|
e|-0---0-----0---4-----------4-----0h2---2-----------0h2---|
c|-1-------1-----------------------------------------------|
g|-2-----2-------------------------------------------------|

A|-0-0---------0---0-0h2-2-0---0-----0---0-0-----7-7/9-7---|
e|-0---0-----0---4-----------2---0h2---------7/9---7/9-7---|
c|-1-------1-----------------------------------------------|
g|-2-----2-------------------------------------------------|

A|-0-0---------0---0-0h2-2-0-0---4h5-6-6/7-4-0-----0---0-----|
e|-0---0-----0---4-------------------------------------------|
c|-1-------1-------------------------------------4---3---2/4-|
g|-2-----2---------------------------------------------------|

A|---4/12/4---5-5/7-7-12---9/7-5-4-|
e|-3-x--------x-x---x-x----x---x-x-|
c|---1/09/1---2-2/4-4-9----6/4-2-1-|
g|---x--------x-x---x-x----x---x-x-|

Solo:
A|-0-0---------0---0-0h2-2-0---0---4-5-6s7-7-7-4--------------|
e|-0---0-----0---4-----------4-------------------5------------|
c|-1-------1-----------------------------------------2/9-9-9--|
g|-2-----2----------------------------------------------------|

A|-----------------------7-7-----9-----7---0-0-4-0-0-5-0-7/0--|
e|-7-7b8b7-5-7-----5-7/9-----7/9---9/7------------------------|
c|---------------6--------------------------------------------|
g|------------------------------------------------------------|

A|-1/12-12-12-12---7-7/9-----9---9---4-7-4-0-------------0-----0-|
e|-------------------------9-----------------5/7-7---7/5---5/4---|
c|---------------------------------------------------------------|
g|---------------------------------------------------------------|

The chords are still A, C#m7, Bm7, E7, but don't be afraid to experiment with different chord variations like Jake. One example is the classic C#m7 to Cm7 to Bm7 slide. Instead of 4444 to 3333 to 2222, try 6877 to 5766 to 4655. You can hear this around 50 seconds into the video.
 
Thank you for tabbing it out ! Much appreciated.
 
Top Bottom