In My Life - The Beatles (solo)

Pirate Jim

Well-known member
Joined
Jul 24, 2014
Messages
700
Reaction score
166
Location
Gloucester, UK
Hi gang,

Just tabbed out the solo from "In My Life" as I couldn't find it anywhere. This is a direct transfer of the right hand piano notes onto the uke and to get the very last bit you need a low G. It's a basic tab - no hammer on/off symbols, timing intervals or anything but you can get those by listening to the song. I hope it's useful!

A-----4---7-5-7-2---2
E-5-7---5---------0--
C--------------------
G--------------------

A-------4-2-4-5-7-10-
E-2-4-5--------------
C--------------------
G--------------------

A-9----9----9---9---8-7-8-5-2-
E---12---10---9---7-----------
C-----------------------------
G-----------------------------

A-7----7---7---7---7-5-7-4-2---0
E---10---9---7---5-----------0--
C-------------------------------
G-------------------------------

Second half:

A-----4---7-5-7-2---2
E-5-7---5---------0--
C--------------------
G--------------------

A-------4-2-4-5-7-10-
E-2-4-5--------------
C--------------------
G--------------------

A-9----9----9---9---8-7-8-5-2-
E---12---10---9---7-----------
C-----------------------------
G-----------------------------

A-7-4-5-7-4-0---------------------
E-------------0-4-5-4-2-0---------
C-------------------------2-1-----
G-----------------------------4-2-
 
Thanks! This song is on my to-do list, and it will be fun to have this part to add in to the song.
 
Top Bottom