Song Help Request picking for honey baby?

Check this out ^_^
 
Code:
Picking (Beginning)
A|--4-5-4---7-7---7-7---5---5--4-5-4--7-7----7-7--7-4--0------0-----0-----0-----0---
E|--5-------------------------------------5-----------------------0-2---0-2---0-2---0-2--0
C|--6------------------------------------------------------------------------------------------
G|---------------------------------------------------------------------------------------------

A|------------------------------------------------------2s4-7-4-(2)--2s4----4s5---4----0-|
E|--0----2-2-2-4-5-(5)---0---2-2-2-4-5-(5)-------------------------------------------- --|
C|---------------------------------------------------------------------------------------------|
G|---------------------------------------------------------------------------------------------|


*Chords: A E6 Bm E7

Intro:
I saw you there standing under the mango tree
A beautiful woman who looked so fine to me
She had all the thins that I've been searching for
She had ehu hair, a flower in her ear, and bongo shorts

Chorus:
She's my Honey baby, my Honey baby yeah
My Honey baby, my Honey baby yeah...

So girl I want you to know that wherever you go
I won't be far away
As I kiss your lips while you sway your hips
You'll just hear me say...

Chorus:

Instrumental:
A|---------------------------------------------3s4-7-4-5-(5)--5s7-5-4--3s4-5-4--
E|-------5-7-4-5-2-4-0-2----------0-----------------------------------------------5
C|-5s6---------------------4-2-4-1-----1--------------------------------------------
G|--------------------------------------------------------------------------------------

A|11-12--9-11-7-9-5-7-----------------------------------4-5--7-7--9----9-9-9-7-
E|12-----------------------5-4-5-4-2-4-5-4-2-4-5--5s7-5s7--9-9-10-------------
C|--------------------------------------------------------------------------------------
G|--------------------------------------------------------------------------------------

A|-7-7---5--5-5---4--4-4----7-7-7-5-5-5-4-4-4-2-2-2-5-5-5-4-4-4-2-2-2-0s2-0
E|-----------------------------------------------------------------------------------------
C|-----------------------------------------------------------------------------------------
G|-----------------------------------------------------------------------------------------

A|------0-------0------0-------0---------------------------------------------------------
E|-0-2----0-2----0-2----0-2-----0-2-0--0--2-2-2-4-5-(5)--0--2-2-2-4-5--(5)-----
C|-----------------------------------------------------------------------------------------
G|-----------------------------------------------------------------------------------------

A|-2s4-7-4-2-(2)-2s4--5--6-7--|
E|-------------------4s5--7--8-9- |
C|----------------------------------|
G|----------------------------------|


Me say my sweet Honey baby yes you know I love you so
So hold on tight and baby never let go
Because you know that when you call me
I'll be there when I can
And you can count on me cause I'm your "Hawaiian Superman"

Chorus:

Instrumental:

A|-4-5-4--7-7---7-7----5--5--4-5-4---7-7----7-7-7-4--0------0-----0------0-----0
E|-5------------------------------------5-----------------------0-2---0-2---0-2---0-2--
C|-6---------------------------------------------------------------------------------------
G|------------------------------------------------------------------------------------------

A|---------------------------------------------------------4--5-7-4----------------------2-|
E|-0-2-0--0--2-2-2-4-5--(5)--0--2-2-2-4-5--(5)-----5---------5---0-2---0--------0-|
C|---------------------------------------------------------6------------------------2-1-----|
G|-----------------------------------------------------------------------------------------1-|


Girl I just told you how I feel for you
And every word I said, yes you know it's true
Before I go there's just one more thing, my darlin'
I give you total commitment girl with this wedding ring

Chorus:

Yes I want you to know that you're mine
All of the time, rain or shine
Girl you're mine (2x)....
 
Brah, we use this progression; A (2100) C#m (6444) Bm (4222) E7 (1202),
 
Top Bottom