Pipeline - Bobblehead & The Flakey Mojo

Okay...I'm guessing the following might be somebody's theme song... :biglaugh:




Seriously, nice job on the video.

John
 
Hi Folks,

I had a request for a tab for this.

This is my first attempt at tabbing,
please let me know where I can improve it.

thanks,
Laef

Code:
Pipeline
by the Chantays.

Arrangement for ukulele by Bobblehead & The Flakey Mojo.

Melody:
   Fm       Fm       Fm       Fm       Fm       Fm      Bb       Bb       Fm       Fm      
A |--------|--------|--------|--------|--------|------3-|--------|--------|--------|--------|
E |--------|--------|----1--1|31-1--31|3-1--1--|---1-4-4|--4-6-46|8646--86|8-6-464-|---4-6--|
C |--------|--------|0-3---3-|--3-----|----3-30|-3------|5-------|--------|-------5|-5------|
G |--------|--------|--------|--------|--------|--------|--------|--------|--------|--------|

   C        C#       C        C#       C        C        Bb                Fm                
A |--------|--------|--------|--------|--------|--------|--------|--------|----3---|--------:||
E |--------|--------|--------|--------|--------|--------|--------|--------|--1-----|--------:||
C |7-57-57-|88-7-5--|7-57-57-|88-7-5--|7-57-57-|7-57-57-|5-------|--------|0-------|--------:||
G |--------|--------|--------|--------|--------|--------|--------|--------|--------|--------:||


Drone/Apagio
   Fm       Fm       Fm       Fm       Fm       Fm       Bb       Bb       Fm       Fm     
A |--------|--------|--------|--------|--------|--------|--------|--------|--------|--------|
E |-1-1-1-1|-1-1-1-1|-1-1-1-1|-1-1-1-1|-1-1-1-1|-1-1-1-1|-1-1-1-1|-1-1-1-1|-1-1-1-1|-1-1-1-1|
C |0-0-0-0-|0-0-0-0-|0-0-0-0-|0-0-0-0-|0-0-0-0-|0-0-0-0-|1-1-1-1-|1-1-1-1-|0-0-0-0-|0-0-0-0-|
G |--------|--------|--------|--------|--------|--------|--------|--------|--------|--------|


   C        C#       C        C#       C        C        Bb                Fm             
A |--------|--------|--------|--------|--------|--------|--------|--------|--------|--------:||
E |-3-3-3-3|-4-4-4-4|-3-3-3-3|-4-4-4-4|-3-3-3-3|-4-4-4-4|-1-1-1-1|-1-1-1-1|-1-1-1-1|-1-1-1-1:||
C |4-4-4-4-|5-5-5-5-|4-4-4-4-|5-5-5-5-|4-4-4-4-|5-5-5-5-|1-1-1-1-|1-1-1-1-|0-0-0-0-|0-0-0-0-:||
G |--------|--------|--------|--------|--------|--------|--------|--------|--------|--------:||
 
Top Bottom