The Black Keys - Your Touch

Link

Well-known member
Joined
Feb 18, 2008
Messages
2,704
Reaction score
18
Location
Ogden UT
The Black Keys are getting super popular. I've always loved jamming to their songs and now maybe some of you will too.

I
Code:
Intro

A|-0------3-0--5-5-5-5-5--3--5--3---0---------|
E|---3--0-------------------------------------|
C|--------------------------------------------| 
G|--------------------------------------------|

Verses (Repeat until chorus)

A|--0---x--x--x---5---3--3--|
E|--0---x--x--x---2---0--0--|
C|--1---x--x--x---2---0--0--|
G|--2---x--x--x---2---0--0--|

Chorus

A|--0--------0-3-0--5---3--3--|
E|--0---------------2---0--0--|
C|--1---7s0---------2---0--0--|
G|--2---------------2---0--0--|

I did Strange Times a while back, if you didn't see it.
http://www.ukuleleunderground.com/forum/showthread.php?31256-The-Black-Keys-Strange-Times
 
Top Bottom